» » »

Beauty Bar Bass tabs (ver.1)

Artists:  A B C D E F G H I J K L M N O P Q R S T U V W X Y Z # 

Beauty Bar Bass tabs (ver.1)

Justin King
Rating:
0/5 (0 votes)

Hard to play? Try these video lessons and learn fast.
                Bassist: Drew Dresman
Tuning: DADG
Bass Recorded: Fender P Bass
Notes: I've watched Drew play this song many times and it should be 99% accurate. 
When he plays it live he adds a couple embellishments here and there but it's pretty much this. 

Key:
() = note that is still ringing
~  = let ring
h  = hammer on
/\ = slide

Verse:
G-----------------------9---------------------------------------|
D------11--9----9h11-------11-9--------------------11--9--------|
A---0-(0)----12------9-(9)------12---------------0-------12-9\--| x2
D----------------------------------99-9--99-9--9----------------|

Pre-Chorus:
G------------------------------------------|
D------------------------------------------|
A--22222222-22222222--55555555-55555555----| x2
D------------------------------------------|

Chorus:
G----------------------------------------------------|
D----------------------------------------------------|
A--0-0-2---------------4-0-0-2-----------------------|
D-------2-2--0-0-2/4-4--------2-2--0-0-2/4-4--0h4-4--|

Verse 2:
G-----------------------9---------------------------------------|
D------11--9----9h11-------11-9--------------------11--9--------|
A---0-(0)----12------9-(9)------12---------------0-------12-9\--| x2
D----------------------------------99-9--99-9--9----------------|

Pre-Chorus, 2-bar drum break
Chorus, 2-bar solo/drum break

Solo/Interlude:
G-----------------------9----------------------------|
D------11--9----9h11-------11-9----------------------|
A---0-(0)----12------9-(9)------12---------------0~--|
D----------------------------------99-9--99-9--9-----|

G---------------------------------|
D----/7~---------------444444-----|
A--------7~--55555555-------------|
D---------------------------------|

Chorus (modified):
G------------------------------------------------------|
D---------------------------------------------------4--|
A--0-0-2---------------4-0-0-2--------------------4----|
D-------2-2--0-0-2/4-4--------2-2--0-0-2/4-4--0h4------|

G---------------------------------|
D---------------------------------|
A--22222222-22222222-5555555------|
D----------------------------0~---|
            
Hard to play? Try these video lessons and learn fast. | Correct




comments powered by Disqus
↑ Back to top | Tablatures and chords are parodies/interpretations of the original songs. You may use it for private study, scholarship, research or language learning purposes only