» » »

Platform Moon Tabs (ver.1)

Artists:  A B C D E F G H I J K L M N O P Q R S T U V W X Y Z # 

Platform Moon Tabs (ver.1)

Jupiter One
Rating:
5/5 (1 vote)

Hard to play? Try these video lessons and learn fast.
                “Platform Moon”  by Jupiter One
------------------------------------
I enjoyed with the riffs of this song!
It is so easy and niceful!
Have fun!


Touched notes an alone time with some kind of delay

Intro
e|--14--9--12--9--12--7--5—7-5-7-9-|--14--9--12--9--12--7--5—7----|
B|---------------------------------|------------------------------|
G|---------------------------------|------------------------------|
D|---------------------------------|------------------------------|
A|---------------------------------|------------------------------|
E|---------------------------------|------------------------------|

Riff 1 – [Fig.1]                          
e|--14--9--12--9--12--7--10~11---|        
B|-------------------------------|        
G|-------------------------------|        
D|-------------------------------|        
A|-------------------------------|        
E|-------------------------------|        


Riff 1 – [Fig.2]
e|--14--9--12--9--7----9---|
B|-------------------------|
G|-------------------------|
D|-------------------------|
A|-------------------------|
E|-------------------------|


Riff 2 – [Fig.1]    C#m   B                      G#m    E
e|-------------------4----7---|-------------------4-----0------|
B|-----7-----10--9---5----7---|-----7-----10--9---4-----0------|
G|--6-----6----------6----8---|--6-----6----------4-----1------|
D|-------------------6----9---|-------------------6-----2------|
A|-------------------4----9---|-------------------6-----2------|
E|-------------------4----7---|-------------------4-----0------|


Chorus chords: (played with delay)
Gm, C#m, E, B


Riff 3 – [Fig.1]
e|--------------------------------------|
B|--------------------------------------|
G|--66-4--22-1---6-4--22-1--------------|
D|--66-4--22-1---6-4--22-1--------------|
A|--------------------------------------|
E|--------------------------------------|
            
Hard to play? Try these video lessons and learn fast. | Correct




comments powered by Disqus
↑ Back to top | Tablatures and chords are parodies/interpretations of the original songs. You may use it for private study, scholarship, research or language learning purposes only