» » »

Jupiter One, Countdown Tabs (ver.1)

Artists:  A B C D E F G H I J K L M N O P Q R S T U V W X Y Z # 

Countdown Tabs (ver.1)

Jupiter One Tabs
 Rating:
4.6/5 (9 votes)
Countdown lessons Tabs too difficult? Try these video lessons and learn fast
                  tuning: drop d


             a very good song that is super easy to play, enjoy!


      Intro/Verse
 e|------------------------------------------------------------------------------|
B|-------------------------------------------------------------------------------|
G|-5-5-xx-5-5-x-5---5--5--5-xx-5---4-x-4---5-5-5-5-xx-5-5-5---5-5-5-xx-5-5-5-----|
D|-7-7-xx-7-7-x-7---5--5--5-xx-5---5-x-5---5-5-5-5-xx-5-5-5---7-7-7-xx-7-7-7-----|
A|-------------------------------------------------------------------------------|
D|-------------------------------------------------------------------------------|
                                 play 5 times

      Chorus
e|------------------|                |-------------------------|
B|------------------|                |-------------------------|
G|-7-5-7-5----------| play 4 times   |-------------------------| play as many
D|---------7-5-7-5--|                |-3-3--3-3-3--3-3-3--3-3-3| times needed
A|------------------|                |-3-3--3-3-3--3-3-3--3-3-3|
D|------------------|                |-3-3--3-3-3--3-3-3--3-3-3|


      2nd part of Chorus
|-------------------|                |-------------------------|
|-------------------|                |-------------------------|
|-7-5-7-5-----------| play 6 times   |-------------------------|
|---------7-5-7-5---|                |-3-3--3-3-3--3-3-3--3-3-3|
|-------------------|                |-3-3--3-3-3--3-3-3--3-3-3|
|-------------------|                |-3-3--3-3-3--3-3-3--3-3-3|

      2nd Verse
|----------------------------------------------------------------------------|
|----------------------------------------------------------------------------|
|-5-5-xx-5-5-x-5---5--5--5-xx-5---4-x-4---5-5-5-5-xx-5-5-5---5-5-5-xx-5-5-5--|
|-7-7-xx-7-7-x-7---5--5--5-xx-5---5-x-5---5-5-5-5-xx-5-5-5---7-7-7-xx-7-7-7--|
|----------------------------------------------------------------------------|
|----------------------------------------------------------------------------|
                                    play 2 times


     2nd Chorus
e|------------------|                |-------------------------|
B|------------------|                |-------------------------|
G|-7-5-7-5----------| play 4 times   |-------------------------| play as many
D|---------7-5-7-5--|                |-3-3--3-3-3--3-3-3--3-3-3| times needed
A|------------------|                |-3-3--3-3-3--3-3-3--3-3-3|
D|------------------|                |-3-3--3-3-3--3-3-3--3-3-3|


    2nd part of 2nd Chorus
|-------------------|                |-------------------------|
|-------------------|                |-------------------------|
|-7-5-7-5-----------| play 6 times   |-------------------------|
|---------7-5-7-5---|                |-3-3--3-3-3--3-3-3--3-3-3|
|-------------------|                |-3-3--3-3-3--3-3-3--3-3-3|
|-------------------|                |-3-3--3-3-3--3-3-3--3-3-3|

   3rd Verse (hole 3rd verse is palm muted)
|----------------------------------------------------------------------------|
|----------------------------------------------------------------------------|
|-5-5-xx-5-5-x-5---5--5--5-xx-5---4-x-4---5-5-5-5-xx-5-5-5---5-5-5-xx-5-5-5--|
|-7-7-xx-7-7-x-7---5--5--5-xx-5---5-x-5---5-5-5-5-xx-5-5-5---7-7-7-xx-7-7-7--|
|----------------------------------------------------------------------------|
|----------------------------------------------------------------------------|
                              play 2 times


     3rd Chorus
e|------------------|                |-------------------------|
B|------------------|                |-------------------------|
G|-7-5-7-5----------| play 4 times   |-------------------------| play as many
D|---------7-5-7-5--|                |-3-3--3-3-3--3-3-3--3-3-3| times needed
A|------------------|                |-3-3--3-3-3--3-3-3--3-3-3|
D|------------------|                |-3-3--3-3-3--3-3-3--3-3-3|


    2nd part of 3rd Chorus
|-------------------|                |-------------------------|
|-------------------|                |-------------------------|
|-7-5-7-5-----------| play 6 times   |-------------------------|
|---------7-5-7-5---|                |-3-3--3-3-3--3-3-3--3-3-3|
|-------------------|                |-3-3--3-3-3--3-3-3--3-3-3|
|-------------------|                |-3-3--3-3-3--3-3-3--3-3-3|

  Outro
|-------------------|                |-------------------------|
|-------------------|                |-------------------------|
|-7-5-7-5-----------| play 6 times   |-------------------------|
|---------7-5-7-5---|                |-3-3--3-3-3--3-3-3--3-3-3|
|-------------------|                |-3-3--3-3-3--3-3-3--3-3-3|
|-------------------|                |-3-3--3-3-3--3-3-3--3-3-3|

  well its that easy, its pretty much just a repetitive song, but who cares, its a good 
and its super easy to play!  ENJOY!!!!
            
Submit corrections

comments powered by Disqus
↑ Back to top | Jupiter One Tabs for Countdown. Lyrics for acoustic guitar and electric guitar. Tablatures and chords are parodies/interpretations of the original songs. You may use it for private study, scholarship, research or language learning purposes only