» » »

Julieta Venegas, Andar Conmigo Tabs (ver.1)

Artists:  A B C D E F G H I J K L M N O P Q R S T U V W X Y Z # 

Andar Conmigo Tabs (ver.1)

Julieta Venegas Tabs
 Rating:
4.3/5 (6 votes)
Andar Conmigo lessons Tabs too difficult? Try these video lessons and learn fast
1
                INTRO:
e----0-------------0-------------0------------------|
B----1-------------1-------------1------------------|
G----0-------0-0---0-------0-0---0-------0-0--------|
D----2---2-2-------2---2-2-------2---2-2------------|
A--3-3-3---------3-3-3---------3-3-3----------------|
E---------------------------------------------------|
                         F
Hay tanto que quiero contarte
      G                       C
hay tanto que quiero saber de ti
      F                   G
ya podemos empezar poco a poco
      F                    G
cuentame que te trae por aqui

        C                     F
no te asustes de decirme la verdad
 G                             C
eso nunca puede estar asi tan mal
       F                        G
yo tambien tengo secretos para darte
       F           G             C
y que sepas que ya no me sirven mas
     E                    F
hay tantos caminos por andar

CORO:
     G                 C         F    G
Dime si tu quisieras andar conmigo oh oh
     G                  C         F    G
cuentame si quisieras andar conmigo oh oh
     G                 C         F    G
dime si tu quisieras andar conmigo oh oh
     G                  C         F    G
cuentame si quisieras andar conmigo oh oh

   C                        F
Estoy ansiosa por soltarlo todo
             G                             C
desde el principio hasta llegar el dia de hoy
        F                          G
una historia tengo en mi para entregarte
        F                   G
una historia todavia sin final

    C                         F
Podriamos decirnos cualquier cosa
         G                             C
incluso darnos para siempre un siempre no
       F                            G
pero ahora frente a frente aqui sentados
    F              G         C
festejemos que la vida nos cruzo
     E                    F
hay tantos caminos por andar

CORO:
     G                 C         F    G
Dime si tu quisieras andar conmigo oh oh
     G                  C         F    G
cuéntame si quisieras andar conmigo oh oh
     G                 C         F    G
dime si tu quisieras andar conmigo oh oh
     G                  C         F    G
cuentame si quisieras andar conmigo oh oh

                     C              F        G
e------------------------------0--------------0-1----|
B--1-0--0-0-0-1-3-0-1--1-1-1-3---1----1-1-1-3-----0--|
G----------------------------------2-----------------|
D----------------------------------------------------|
A----------------------------------------------------|
E----------------------------------------------------|
                     Si quisieras andar conmigo

                      C              F        G
e------------------------------0--------------0-1----|
B--1-0--0-0-0-1-3-0-1--1-1-1-3---1----1-1-1-3-----0--|
G----------------------------------2-----------------|
D----------------------------------------------------|
A----------------------------------------------------|
E----------------------------------------------------|
                     Si quisieras andar conmigo

                      C              F        G
e------------------------------0--------------0-1----|
B--1-0--0-0-0-1-3-0-1--1-1-1-3---1----1-1-1-3-----0--|
G----------------------------------2-----------------|
D----------------------------------------------------|
A----------------------------------------------------|
E----------------------------------------------------|
                     Si quisieras andar conmigo

                      C              F        G
e------------------------------0--------------0-1----|
B--1-0--0-0-0-1-3-0-1--1-1-1-3---1----1-1-1-3-----0--|
G----------------------------------2-----------------|
D----------------------------------------------------|
A----------------------------------------------------|
E----------------------------------------------------|
                     Si quisieras andar conmigo
            
Submit corrections

comments powered by Disqus
↑ Back to top | Julieta Venegas Tabs for Andar Conmigo. Lyrics for acoustic guitar and electric guitar. 1 Tablatures and chords are parodies/interpretations of the original songs. You may use it for private study, scholarship, research or language learning purposes only