» » »

Ill Be There Tabs (ver.1)

Artists:  A B C D E F G H I J K L M N O P Q R S T U V W X Y Z # 

Ill Be There Tabs (ver.1)

Julie Anne San Jose
Rating:
0/5 (0 votes)

Hard to play? Try these video lessons and learn fast.
                Julie Anne San Jose - I'll Be There (Piano)

(plucking only)

Intro:

e-------3---------3--------3-------3-------|
B-------3---------3--------3-------3-------|
G------------------------------------------|
D-----------------3--------2-------3-------|
A-------3----------------------------------|
E------------------------------------------|

Verse:

e-------3--------3---------3-------3-------|
B-------3--------3---------3-------3-------|
G------------------------------------------|
D----------------3---------2-------3-------|   (3X)
A-------3----------------------------------|
E------------------------------------------|

e-------3--------3--------3--------|
B-------3--------3--------3--------|
G----------------------------------|
D----------------2--------3--------|
A-------3--------------------------|
E----------------------------------|

Chorus:


e-------3---------3--------3-------3-------|
B-------3---------3--------3-------3-------|
G------------------------------------------|
D-----------------3--------2-------3-------|   (2X)
A-------3----------------------------------|
E------------------------------------------|


  (let it ring)
e-------3--------|---3--------3--------|---3--------3-----3---|
B-------3--------|---3--------3--------|---3--------3-----3---|
G----------------|----------------(2X)-|----------------------|
D----------------|---2--------3--------|------------2-----3---|
A----------------|---------------------|---2------------------|
E-------2--------|---------------------|----------------------|


repeat intro 2x
repeat verse
repeat chorus 2x

Enjoy!!
            
Hard to play? Try these video lessons and learn fast. | Correct




comments powered by Disqus
↑ Back to top | Tablatures and chords are parodies/interpretations of the original songs. You may use it for private study, scholarship, research or language learning purposes only