» » »

Stuck Inside Your Head Bass tabs (ver.1)

Artists:  A B C D E F G H I J K L M N O P Q R S T U V W X Y Z # 

Stuck Inside Your Head Bass tabs (ver.1)

Julian Smith
Rating:
0/5 (0 votes)

Hard to play? Try these video lessons and learn fast.
                ~ - Let ring
x - Hold string

     :VERSE 1 [2x]:
G |-------------------------|
D |-------------------------|
A |----7--------------7-----| 
E |--5---7-8--8-8-875---7-8x|

G |--------------------------------|
D |--------------------------------|
A |-----12--------------------12---|
E |--10----12-13-13-131210-10----12|

     :PRE-CHORUS 1:
G |----------------------------|
D |----------------------------|
A |----7---------------------7~| 
E |--5---7-8--8-8-875---5-8----|

     :CHORUS 1 [4x]:
G |-----------------|
D |-----------------|
A |-----------------|
E |-5--3-5--358535--|

     :VERSE 2 [2x]:
G |-------------------------|
D |-------------------------|
A |----7--------------7-----| 
E |--5---7-8--8-8-875---7-8x|

G |--------------------------------|
D |--------------------------------|
A |-----12--------------------12---|
E |--10----12-13-13-131210-10----12|

     :PRE-CHORUS 2:
G |----------------------------|
D |----------------------------|
A |----7---------------------7~| 
E |--5---7-8--8-8-875---5-8----|

     :CHORUS 2 [2x]:
G |-----------------|
D |-----------------|
A |-----------------|
E |-5--3-5--358535--|


Then play verse through the rest of
the song.
            
Hard to play? Try these video lessons and learn fast. | Correct




comments powered by Disqus
↑ Back to top | Tablatures and chords are parodies/interpretations of the original songs. You may use it for private study, scholarship, research or language learning purposes only