» » »

Im Reading A Book Tabs (ver.1)

Artists:  A B C D E F G H I J K L M N O P Q R S T U V W X Y Z # 

Im Reading A Book Tabs (ver.1)

Julian Smith
Rating:
0/5 (0 votes)

Hard to play? Try these video lessons and learn fast.
                ----------------------------------------------------------------------------
                      I'm Reading A Book - Julian Smith
----------------------------------------------------------------------------

This is literally my first tab so sorry if I make mistakes

Tuning: Drop D
Intro Riff
e|-------------------------------------------------------------------------|
B|-------------------------------------------------------------------------|
G|-------------------------------------------------------------------------|
D|-------------------------------------------------------------------------|
A|4--4--4-4h6h7---4--4--4-4h6h7------------6h7-----------------------------|
D|--------------------------------4--4--4-4--------------------------------|

Verse (More suited for bass)
e|---------------------------------------------------------------------|
B|---------------------------------------------------------------------|
G|---------------------------------------------------------------------|
D|---------------------------------------------------------------------|(x3)
A|4-4-4-4-4-4-4--------------------------------------------------------|
D|--------------4-4-4-4-4-4-4-4----------------------------------------|

Chorus
e|---------------------------------------------------------------------|
B|---------------------------------------------------------------------|
G|66666666666666----------------6666666666666666-----------------------|
D|66666666666666-44444444444444-6666666666666666-444444444444444-------|
A|44444444444444-44444444444444-4444444444444444-444444444444444-------|
D|---------------44444444444444------------------444444444444444-------|

Intro
Verse
Chorus
Verse
Chorus
Bridge
Chorus

I MADE THIS FOR YOU!!!!!!!!!!!!!!!

************************************

| /   slide up
| \   slide down
| h   hammer-on
| p   pull-off
| ~   vibrato
| +   harmonic
| x   Mute note
| b   Bend
| pb  Pre-bend
| br  Bend release
| pbr Pre-bend release
| brb Bend release bend

************************************
            
Hard to play? Try these video lessons and learn fast. | Correct




comments powered by Disqus
↑ Back to top | Tablatures and chords are parodies/interpretations of the original songs. You may use it for private study, scholarship, research or language learning purposes only