» » »

Julian Smith, Eat Randy Tabs (ver.1)

Artists:  A B C D E F G H I J K L M N O P Q R S T U V W X Y Z # 

Eat Randy Tabs (ver.1)

Julian Smith Tabs
 Rating:
4.2/5 (5 votes)
Eat Randy lessons Tabs too difficult? Try these video lessons and learn fast
                Guitar intro

   A           E           G           D
e--------------------------------------------------|
B--------------------------------------------------|
G--------6-----------------------4-----------------|
D--7--7-----7--------6-----5--5-----5--------4-----|
A-----------------7-----7-----------------5-----5--|
E--------------------------------------------------|

First Verse
   A                       E
e--------------------------------------------------|
B--------------------------------------------------|
G--2--2--------------------------------------------|
D--2--2--------------------2--2--------------------|
A--0--0--------------------2--2--------------------|
E--------------------------0--0--------------------|

   G                       E           G
e--------------------------------------------------|
B--------------------------------------------------|
G--------------------------------------------------|
D--5--5--------------------2--2--------5--5--------|
A--5--5--------------------2--2--------5--5--------|
E--3--3--------------------0--0--------3--3--------|

Chorus

   A           E           G           D
e--------------------------------------------------|
B--------------------------------------------------|
G--------6-----------------------4-----------------|
D--7--7-----7--------6-----5--5-----5--------4-----|
A-----------------7-----7-----------------5-----5--|
E--------------------------------------------------|


Middle Section
e--3-----4------3-----4-----3-----4-----5-----4----|
B--------------------------------------------------|
G--------------------------------------------------|
D--------------------------------------------------|
A--------------------------------------------------|
E--------------------------------------------------|

e--3-----4------3-----4-----3-----4-----5-----4----|
B--------------------------------------------------|
G--------------------------------------------------|
D--------------------------------------------------|
A--------------------------------------------------|
E--------------------------------------------------|

e--4~~~~~~~~~~~~~~~~~~~~~~~~~~~~~~~~~~~~~~~~~~~~~~~
B--------------------------------------------------|
G--------------------------------------------------|
D--------------------------------------------------|
A--------------------------------------------------|
E--------------------------------------------------|
            
Submit corrections

comments powered by Disqus
↑ Back to top | Julian Smith Tabs for Eat Randy. Lyrics for acoustic guitar and electric guitar. Tablatures and chords are parodies/interpretations of the original songs. You may use it for private study, scholarship, research or language learning purposes only