» » »

Liwanag Tabs (ver.1)

Artists:  A B C D E F G H I J K L M N O P Q R S T U V W X Y Z # 

Liwanag Tabs (ver.1)

Julianne
Rating:
0/5 (0 votes)

Hard to play? Try these video lessons and learn fast.
                LIWANAG (chords)

INTRO:
	 D	          Bb		  C	      G
E|-------0---------------0----------------0------------------|
B|----10---10---------6-----6----------8-----8--------3------|
G|--9---------9----5-----------5- ---7-----------7----2------|
D|----------------------------------------------------0------|
A|-----------------------------------------------------------|
E|-10--  ----------6-----------------8----------------3------|


VERSE I:

	  D	           Bb		    C	       G
E|--------0-----------------0---------------0-----------------|
B|-----10---10-----------6-----6---------8-----8-------3------|
G|--9------------9----5-----------5---7-----------7----2------|
D|-----------------------------------------------------0------|
A|------------------------------------------------------------|
E|--10---------------6---------------8----- -----------3------|

D		   Bb
Liwanag ng bagong umaga
        C			G
Walang pag-asang dala-dala
D		   Bb
Ni animo man o kahit ano
C			G
Hanap hanap ko’y mukha mo

	    Bm	                 Bb7		       Am	     G
E|-------------------------------------------------------------------------|
B|-----------5--------------------5--------------------5-------------3-----|
G|--------7-----7--------------7-----7--------------5-----5----------2-----|
D|-----7-----------7--------6-----------6--------5-----------5-------0-----|
A|-------------------------------------------------------------------------|
E|--7--------------------6---------------------5---------------------3-----|

            Bm
Kahit sulyap lang
           Bb7
O paramdam
       Am	       G
Sana ako ay pag bigyan

        Bm	Bb7
Alam ko ika’y nandiyan
        Am	  G
Naghihintay nakaabang

   Gm             Em	       A/C#
E|-----------------------------------------|
B|--3-------------3-------------2----------|
G|--3-------------0-------------2----------|
D|--3-------------4-------------2----------|
A|------------------------------4----------|
E|--3-------------0------------------------|


CHORUS:

     D	           Am             G       Bb      C
E|---5----------------------------0-------0-------0------|
B|---5--------------0-------------3-------6-------8------|
G|---7------------5-----5---------2-------5-------7------|
D|---7---------5-----------5------0-------0-------0------|
A|---5---------0-----------------------------------------|
E|--------------------------------3-------6-------8------|

	D	Am
Di bale nalang
	G
Kung hindi lang din ikaw
	Bb	     C
Ang gigising sa umaga

D	Am
Di bale nalang
G
Kung hindi lang boses mo
Bb	     C	 -    D
Aking pakikinggan


VERSE II (Same chords)

Bawat buntong hininga
Bawat luha sa mga mata
Dinig mo lahat ng sinasabi sa iyo
Hawak ko lang pangako mo

Na di minsan hindi iniwan
Lumayo lang aking tingin

Di ko kailangang
Maunawaan
Alam ko ito’y lilipas din

REPEAT CHORUS

INTRUMENTAL

      D	          Bb	       C
E|----0-----------0------------0------|
B|----10----------6------------8------|
G|----9-----------5------------7------|
D|------------------------------------|
A|------------------------------------|
E|----10----------6------------8------|


     Gm           Em	       A/C#
E|------------------------- -------------|
B|--3-------------3-------------2--------|
G|--3-------------0-------------2--------|
D|--3-------------4-------------2--------|
A|------------------------------4--------|
E|--3-------------0----------------------|


Bb – C – Bb – C – Bb – G – 
– Gm – Em – A/C#

REPEAT CHORUS (3x)

OUTRO

      D	           Bb	        C
E|----0-------------0-----------0-------|
B|----10------------6-----------8-------|
G|----9-------------5-----------7-------|
D|--------------------------------------|
A|--------------------------------------|
E|----10------------6---------- 8-------|


D – Bb – C – D – G – C – 
– Bb – A7sus
            
Hard to play? Try these video lessons and learn fast. | Correct




comments powered by Disqus
↑ Back to top | Tablatures and chords are parodies/interpretations of the original songs. You may use it for private study, scholarship, research or language learning purposes only