» » »

Julianne, Grateful Tabs (ver.1)

Artists:  A B C D E F G H I J K L M N O P Q R S T U V W X Y Z # 

Grateful Tabs (ver.1)

Julianne Tabs
 Rating:
4.2/5 (5 votes)
Grateful lessons Tabs too difficult? Try these video lessons and learn fast
                Julianne

Si Julianne, babaeng napakalupet maggtara lalo na sa plucking, ewan ko bakit walang nag
ng mga kanta nya dito sa site na ito, napakatalented nya, walang binatbat sina Kitchie
Danita, Aya ng Imago o Barbie Almalbis pag kinumpara nyo sa kanya pero ok din yung apat 
binanggit ko hehe. Maganda at sexy pa hehe lalo na pag nakita nyo yung video nyang Tulak
Bibig.

Walang nag-tatab ng kantang ito kaya naisipan ko ako mauna hehe

Key: D

Tuning: Standard EADGBe

Chords used:
A -     x02220
D/F#    2x023x
G -     32023x
G2 -    320033
GM7 -   3x0032
E/G# -  476xxx
F#/Bb - x1434x
Bm -    x24432
E -     022100
Em -    022000
C -     x32010


Intro: x2


         Riff 1            A       D/F#    G
e|--------------------|--------0-|------|-----|
B|--------------------|-----2--2-|-3--3-|-3---|
G|-0----------0-------|---2------|-2--2-|-2---|
D|-------0h4----4p2-0-|----------|-0--0-|-0---|
A|---0h4--------------|-0--------|------|-----|
E|--------------------|----------|-2--2-|-3---|
then
         Riff 2          A       D/F#   GM7
e|------------------|--------0-|------|-2---|
B|------------------|-----2--2-|-3--3-|-3---|
G|----------0-------|---2------|-2--2-|-2---|
D|-----0h4----4p2-0-|----------|-0--0-|-0---|
A|-0h4--------------|-0--------|------|-----|
E|------------------|----------|-2--2-|-3---|


Verse 1:
     A              D/F# G
I'm stronger than before, Stronger than ever be
      A             D/F#
And I raise my eyes to the one
GM7
  the one who made me see
A                 D/F#            G    Riff 1
All I thought was lost but now is found
    A  D/F# GM7
And I'm     grateful
A                D/F#              G
Grateful for the day you called my name
     A                   D/F#
Ever since you walked in to the door
     G
It's never been the same
A            D/F#             G             Riff 2
Mornings are brighter now and I'm not afraid
      A            D/F#        G
And I wake up each day With a smile on my face


Refrain:
    G2           E/G#
Coz I've been in places
      A          F#/Bb
where I couldn't even see the
Bm       E   G2       A   D
light of day And then you came


Chorus:
    A  D/F# G
I'm gra---teful
    A                 D/F#
you showed me the way back
      GM7
to my beautiful
(Repeat)


(Repeat Intro but only once)

Verse 2:
A               D/F#         G
Eveything seems different now
A                   D/F#    G
things are turned inside out
       A           D/F#      G             Riff 1
With a new pair of senses to go with around
   A                          D/F#  G
It doesn't even matter if I'm up or down
A         D/F#   G
Blues are blues smiles are brighter
           A
It draws a tear whenever
D/F#        G
I watch the sunsets paint the sky
             A            D/F#      G   Riff 1
I don't even mind walking under the rain
        A                   D/F#
I never laughed like this before
              G
and I'm gonna say it once more


(Repeat Refrain and Chorus)


    A  D/F# G
I'm gra---teful

Interlude: Em--G--Em--G--Bm--C--Bm


Guitar 2:
e|----12-14-15-14-12----12-------|----12-14-15-14-12----12-14-15-|
B|-15----------------15----15-12-|-15----------------15----------|
G|-------------------------------|-------------------------------|
D|-------------------------------|-------------------------------|
A|-------------------------------|-------------------------------|
E|-------------------------------|-------------------------------|
then
e|----12-14-|-15-|
B|-15-------|-13-|
G|----------|-12-|
D|----------|----| (x2)
A|----------|----|
E|----------|----|


Guitar 3:
e|-13\10-|-14/17-|-10-----------------------|
B|-------|-------|-----10--12------10-------|
G|-------|-------|-------------11------11\7-|
D|-------|-------|--------------------------|
A|-------|-------|--------------------------|
E|-------|-------|--------------------------|


(Repeat Refrain)
(Repeat Verse 1)


Outro:
    A  D/F# GM7
And I'm     grateful
    A  D/F# GM7
And I'm     grateful


Em--D/F#--G--Riff 2 (x32)  until fade
            
Submit corrections

comments powered by Disqus
↑ Back to top | Julianne Tabs for Grateful. Lyrics for acoustic guitar and electric guitar. Tablatures and chords are parodies/interpretations of the original songs. You may use it for private study, scholarship, research or language learning purposes only