» » »

Jukebox The Ghost, Somebody Tabs (ver.1)

Artists:  A B C D E F G H I J K L M N O P Q R S T U V W X Y Z # 

Somebody Tabs (ver.1)

Jukebox The Ghost Tabs
Rating:
0/5 (0 votes)
Somebody lessons Tabs too difficult? Try these video lessons and learn fast
                Let me know if there's any errors~

Intro:

|---------------|
|--13-13--------|
|--------12-12--|   (x16)
|---------------|   (alternate unmuted and muted)
|---------------|
|---------------|

|--1--|
|--1--|
|--2--|   (hold)
|--3--|
|--3--|
|--1--|

Verse:

|-------------------|
|--5-8--------------|
|--5-9-2-----2-4-5--|   (x4)
|--5-9-3-----3-5-7--| 
|--3-7-3-----3-5-7--|
|------1-----1-3-5--|

after 2 times, the |--13-13--------| pattern is repeated over
                   |--------12-12--| the chords.

|-------|
|-------|
|--5-4--|
|--7-5--| (hold)
|--7-5--|
|--5-3--|

|---------------|       |-------|
|--13-13--------|       |-13\0--|
|--------12-12--| (x3)  |-------|
|---------------|       |-------|
|---------------|       |-------|
|---------------|       |-------|

Chorus:

|--1--1--1-1--1--1--1--1--1-5--3--|
|--1--1--1-1--1--1--1--1--1-5--3--|
|--2--2--2-2--2--2--2--2--2-5--4--| (x3)
|--3--3--3-3--3--3--3--3--3-7--5--|
|--3--3--3-3--3--3--3--3--3-7--5--|
|--1--1--0-1--1--0--1--1--0-5--3--|

|--1--1--1-1--1--1-1--3--5--1--|
|--1--1--1-1--1--1-1--3--5--1--|
|--2--2--2-2--2--2-2--4--5--2--|
|--3--3--3-3--3--3-3--5--7--3--|
|--3--3--3-3--3--3-3--5--7--3--|
|--1--1--0-1--1--0-1--3--5--1--|

Instrumental:

|--0-0-1----1-3-5--|
|--1-0-1----1-3-5--|
|--2-0-2----2-4-5--|
|--0-2-3----3-5-7--|
|--3-2-3----3-5-7--|
|------------------|

Repeat the verse and chorus again, then the instrumental section twice.

Verse:

|-------------------|
|--5-8--------------|
|--5-9-2-----2-4-5--|   (x2)
|--5-9-3-----3-5-7--| 
|--3-7-3-----3-5-7--|
|------1-----1-3-5--|

|-------|
|-------|
|--5-4--|
|--7-5--| (hold)
|--7-5--|
|--5-3--|

|--------------------------------10--|
|-13-13-13-13-----13-13-13-13-13-----|                     |--13\0--|
|------------------------------------| (x4, muted, then:)
|------------------------------------|
|------------------------------------|
|------------------------------------|

Repeat the chorus.

Instrumental:

|--0-0-1----1-3-5--|
|--1-0-1----1-3-5--|
|--0-0-2----2-4-5--|   (x3)
|--2-2-3----3-5-7--|
|--3-2-3----3-5-7--|
|------------------|

|--0-0-1----1-0-0--|
|--1-0-1----1-0-1--|
|--0-0-2----2-0-2--|
|--2-2-3----3-2-2--|
|--3-2-3----3-2-0--|
|------------------|
            
Submit corrections

comments powered by Disqus
↑ Back to top | Jukebox The Ghost Tabs for Somebody. Lyrics for acoustic guitar and electric guitar. Tablatures and chords are parodies/interpretations of the original songs. You may use it for private study, scholarship, research or language learning purposes only