» » »

One Year One Day Tabs (ver.1)

Artists:  A B C D E F G H I J K L M N O P Q R S T U V W X Y Z # 

One Year One Day Tabs (ver.1)

Jude
Rating:
0/5 (0 votes)

Hard to play? Try these video lessons and learn fast.
                Intro - Gtr I

E------------------------------------|
B------------------------------------|
G------------5/7-------7/9--5/7------|
D--5/7--5/7--5/7--5/7--7/9--5/7--5/7-|
A--5/7--5/7--3/5--5/7--5/7--3/5--5/7-|
D--5/5--3/5-------3/5------------3/5-|

Verse Gtr I


E-----------------------------------------------------------------------------------------------|
B-----------------------------------------------------------------------------------------------|
G----------------------------------------5/7-777777777--5-4--------------------7/99999----------|
D--5/7-777777777--5-4--7-777777777--5-4--5/7-777777777--5-4--5/7-777777777-----5/99999--5/77777-|
A--5/7-777777777--5-4--7-777777777--5-4--3/5-555555555--3-2--5/7-777777777-----5/77777--5/77777-|
D--3/5-555555555--3-2--5-555555555--3-2----------------------3/5-555555555--------------3/55555-|

E------------------------|
B------------------------|
G------------------------|
D--5/7-777777777-PALM-77-|
A--5/7-777777777------77-|
D--3/5-555555555------55-|


Chorus Gtr I and II
E----------------------------------------------|
B----------------------------------------------|
G--4-4-444-----------7-7-777-------------------|
D--4-4-444--5-5-555--7-7-777--7-7-777--PALM-77-|
A--2-2-222--5-5-555--5-5-555--7-7-777-------77-|
D-----------3-3-333-----------5-5-555-------55-|

E----------------------------|
B----------------------------|
G----------------------------|
D--5-5-5-5-5-5-5-5--77777777-|
A--5-5-5-5-5-5-5-5--77777777-|
D--3-3-3-3-3-3-3-3--55555555-|

VERSE again
CHORUS again x2

then
E---------------------------------------------------------------|
B---------------------------------------------------------------|
G---------------------------------------------------------------|
D--22--222--222--222-5--22--222--222--222----77-55--22--222--22-|
A--22--222--222--222-5--22--222--222--222----77-55--22--222--22-|
D--00--000--000--000-3--00--000--000--000--0-55-33--00--000--00-|

CHORUS AGAIN... FADE OUT 3 TIMES
            
Hard to play? Try these video lessons and learn fast. | Correct




comments powered by Disqus
↑ Back to top | Tablatures and chords are parodies/interpretations of the original songs. You may use it for private study, scholarship, research or language learning purposes only