>
 >
Genocide

Genocide Guitar Tabs

Judas Priest - Genocide chords, tabs, tablatures, lyrics

Guitar lessons | Add/correct | Request | Top 50 tabs Artists:  A B C D E F G H I J K L M N O P Q R S T U V W X Y Z 0-9

Genocide Guitar Tabs – Judas Priest

CD, Sheet music, Poster

Do you like Genocide? Share with your friends now
TabsTabs v2
LIVE INTRO :
 e|---------------------------------|---------------------------------|------------|
 B|---------------------------------|---------------------------------|------------|
 G|-2----2-----2--------------------|-2----2-----2--------------------|-2----------|
 D|-2----2-5---2--------------------|-2----2-5---2--------------------|-2----------|
 A|-0----0-5---0-00-00-00-00-00-000-|-0----0-5---0-00-00-00-00-00-000-|-0----------|
 E|--------3------------------------|--------3------------------------|------------|
                 xx xx xx xx xx xxx                xx xx xx xx xx xxx

 e|---------------------------------|---------------------------------|
 B|---------------------------------|---------------------------------|
 G|-2--2-2-2-------------------2----|-2--2-2-2-------------------2----|
 D|----------5--5-5-5-4--4-4-4-2----|----------5--5-5-5-4--4-4-4-2----|
 A|---0-0-0----0-0-0----0-0-0--0----|---0-0-0----0-0-0----0-0-0--0----|
 E|---------------------------------|---------------------------------|
      x x x    x x x    x x x           x x x    x x x    x x x

 e|---------------------|---------------------|-
 B|---------------------|---------------------|-
 G|-5-2-2-2-2-2---5--7--|-5-2-2-2---5--4---2--|-
 D|-5-2-2-2-2-2---5--7--|-5-2-2-2---5--4---2--|-
 A|-3-00000000000-3--5--|-3-0000000-3--2---0--|-
 E|---------------------|---------------------|-
       x x x x x             x x x

 -|---------------------|---------------------|
 -|---------------------|---------------------|
 -|-5-2-2-2-2-2---5--7--|-5-2-2-2---5--4---2--|
 -|-5-2-2-2-2-2---5--7--|-5-2-2-2---5--4---2--|
 -|-3-00000000000-3--5--|-3-0000000-3--2---0--|
 -|---------------------|---------------------|
       x x x x x             x x x

   PRE-INTRO : Single Guitar             X2
 e|----------------------------------------|
 B|----------------------------------------|
 G|---2-5-----7-7-5-----2-2-----7-5---2-5--|
 D|---2-5-----7-7-5-----2-2-----7-5---2-5--|
 A|-0-------0---------0-0-0---0-----0------|
 E|----------------------------------------|

   INTRO : Both Guitars
 e|-----------------------------------------|------------------------------------|
 B|-----------------------------------------|------------------------------------|
 G|----2-5-----7-7-5-----2-2-----7-5---2-5--|----2-5-----7-7-5-----2-2-----7-5---|
 D|----2-5-----7-7-5-----2-2-----7-5---2-5--|----2-5-----7-7-5-----2-2-----7-5---|
 A|--0-------0---------0-0-0---0-----0------|--0-------0---------0-0-0---0-----0-|
 E|-----------------------------------------|------------------------------------|

 e|-------------------------------|-------------------------------|
 B|-------------------------------|-------------------------------|
 G|--------------5--------------7-|--------------5--------------7-|
 D|--------------5--------------7-|--------------5--------------7-|
 A|-2--------------2--------------|-2--------------2--------------|
 E|-0--3p(0)-0-0---0--3p(0)-0-0---|-0--3p(0)-0-0---0--3p(0)-0-0---|
               x              x                x              x


   VERSE :                                X3
e|-----------------------------------------|------------------------------------|
B|-----------------------------------------|------------------------------------|
G|----2-5-----7-7-5-----2-2-----7-5---2-5--|----2-5-----7-7-5-----2-2-----7-5---|
D|----2-5-----7-7-5-----2-2-----7-5---2-5--|----2-5-----7-7-5-----2-2-----7-5---|
A|--0-------0---------0-0-0---0-----0------|--0-------0---------0-0-0---0-----0-|
E|-----------------------------------------|------------------------------------|

   CHORUS :                     X4
 e|-------------------------------|
 B|-------------------------------|
 G|--------------5--------------7-|
 D|--------------5--------------7-|
 A|-2--------------2--------------|
 E|-0--3p(0)-0-0---0--3p(0)-0-0---|
               x              x

   BREAK :                         SEVERAL X
 e|-----------------------------------------|
 B|-----------------------------------------|
 G|----5--5---5(/7)------5--5---5(/7)-(/)9--|
 D|----5--5---5(/7)------5--5---5(/7)-(/)9--|
 A|-0-------0---------0-------0-------------|
 E|-----------------------------------------|

...... ...... ......





Comments


Popular Judas Priest tabs & chords
Better By You, Better Than Me Bass Tabs
Lost Love Chords
Battle Hymn 1 Tabs
Breaking The Law 5 Tabs
Diamonds And Rust 1 Tabs
Diamonds And Rust 5 Tabs
Invader Tabs
Sad Wings Intro Tabs
Starbreaker Tabs
Angel Ukulele


Song lyrics



↑ Back to top | Tablatures and chords are parodies/interpretations of the original songs. You may use it for private study, scholarship, research or language learning purposes only
© 2014 AZChords.com Contact us | Privacy policy | DMCA | Add/correct tabs | Request tabs | Top 50 tabs