>
 >
Call For The Priest

Call For The Priest Guitar Tabs

Judas Priest - Call For The Priest chords, tabs, tablatures, lyrics

Guitar lessons | Add/correct | Request | Top 50 tabs Artists:  A B C D E F G H I J K L M N O P Q R S T U V W X Y Z 0-9

Call For The Priest Guitar Tabs – Judas Priest

CD, Sheet music, Poster

Do you like Call For The Priest? Share with your friends now
Tabs
Call for the Priest  

  There are 3 main riffs in this song.  It donned on me after I did this that
I could have eliminated alot of space and confusion by using more fills and
structuring it like I did after the guitar solos.  I'm gonna try working on
those next.
h-hammer  p-pull  s-slide  b-bend


  !!                opening riff
||------------------|-----------------|-----------------|-----------------|
||*-----------------|-----------------|-----------------|-----------------|
||----------5----7--|---------7----5--|---------5----7--|-7p5---7----5----|
||----------5----7--|---------7----5--|---------5----7--|-7p5---7----5----|
||*--0h5h7----------|--0h5h7----------|--0h5h7----------|-----0-----------|
||------------------|-----------------|-----------------|-----------------|

                                                       (ending one)
|-----------------|-----------------|-----------------|------------------||
|-----------------|-----------------|-----------------|-----------------*||
|---------5----7--|---------7----5--|---------5----7--|-7p5---2----------||
|---------5----7--|---------7----5--|---------5----7--|-7p5---2----------||
|--0h5h7----------|--0h5h7----------|--0h5h7----------|-----0------0-0--*||
|-----------------|-----------------|-----------------|------------------||


                                     ****  MAIN BODY
 (ending two)      open riff end !!    @verse riff@ 3X                   
|-----------------|-----------------|------------------/-----------------|
|-----------------|-----------------|------------------/-----------------|
|--------2--------|---------2-------|------------------/-----------------|
|-7p5----2--------|---------2---4---|-2h4-4----2h4-4---/-----------------|
|-----0--0--------|---------0---4---|-2---2-2--2---2-2-/-2p0---4------5--|
|-----------------|-------------2---|------------------/-----2-2---2-----|

Verse riff 2x                         verse riff 3X
  |-----------------|-----------------|    |-----------------|
  |-----------------|-----------------|    |-----------------|
  |-----------------|-------------2---|    |-----------------|
  |-----------------|-------------0---|    |-----------------|
  |-2p0---4---------|-2p0---4---------|    |-2p0---4------5--|
  |-----2-2---------|-----2-2---0-----|    |-----2-2---2-----|

                                                       END MAIN BODY  ****
verse riff once                                        
  |-----------------|-----------------|-----------------|-----------------|
  |-----------------|-----------------|-3---------------|-3---------------|
  |-----------------|-----------------|-2---------------|-2---------------|
  |-2h4-4-4-4--4----|-2---------------|-0---------------|-0---------------|
  |-2---2-2-2--2----|-2---------------|-----------------|-----------------|
  |-----------------|-0---------------|-----------------|-----------------|


Opening riff, MAIN BODY, first 6 bars of opening riff,

  |-----------------|-----------------|-------------------|-----------------|
  |-----------------|-----------------|-------------------|-----------------|
  |-------5----7----|-7--5------------|-2---2--2-----2----|-2---2-----------|
  |-------5----7----|-7--5------------|-2---2--2-----2----|-2---2-----------|
  |-0h5h7-----------|-------0---------|-0---0--0-----0--2-|-0---0-----------|
  |-----------------|-----------------|---3-------3-----0-|---3----3--2--0--|

                                         $$$    SECONDARY BODY           $$$
 ##fill 1                        ##       svr     3X     
|-----------------|-----------------|   -----------------/-----------------|
|-----------------|-----------------|   -----------------/-----------------|
|-4---4--4---4----|-4---4--5--6-----|   -----------------/-----------------|
|-4---4--4---4----|-4---4--5--6-----|   -5h7-----5h7-----/-7p5---6p4---5p3-|
|-2-0-2--2-0-2----|-2-0-2--3--4-----|   -0---0-0-0---0-0-/-----7-----6-----|
|--------------2--|-----------------|   -----------------/-----------------|


repeat this twice __
 svr 3X             | svr 2x
                    |   ^^fill 2                               ^^
  |-----------------|  |-----------------------|-----------------|
  |-----------------|  |-----------------------|-----------------|
  |-----------------|  |-----------------------|--3--------------|
  |-7p5s4-6p4s3-5p3-|  |-7p5s4-6p4s3-5p3s2-4p2-|--3--------------|
  |-----------------|  |-----------------------|-----------------|
  |-----------------|  |-----------------------|-----------------|

  do this section twice
|---------------|-----------------|---------------|----------------------|
|-10--10--10----|-10--10--10--8---|-10--10--10----|-10--10--10-s5--6-s8--|
|-11--11--11----|-11---9--11--7---|-11--11--11----|-11---9--11-s6--7-s9--|
|-12--12--12----|-12--11--12--9---|-12--12--12----|-12--11--12-s7--8-s10-|
|---------------|-----------------|---------------|----------------------|
|---------------|-----------------|---------------|----------------------|

   F          1/2
|----12----------|---------------------|---------------------|
|-15b---15-12----|---------------------|---------------------|
|-------------14b|(14)P12-14P12---14---|-12-------12---------|
|----------------|--------------14--14-|---14P12----14-12----|
|----------------|---------------------|--------14--------14-|
|----------------|---------------------|---------------------|

|----------------|  -|
|-s12------------|   This part if the main guitar from the
|-s13------------|   | harmony.  
|-s14------------|   |
|----------------|   |
|----------------|  _|

                                           MAIN BODY, first 8 bars of opening
|---------------------|-----|-----------|     riff twice.  
|---------------------|-----|-----------|
|---------------------|-----|-2---2-----|    Solos....
|-12------------------|-----|-2---2--4--|
|---14p13-12-13p12s10-|-12--|-0---0--4--|
|---------------------|-----|--------2--|


fill 1, SECONDARY BODY 3x, svr 2X, fill 2, A5, F#5, MAIN BODY, opening riff
sub this in for (ending two)

|-------------------------|----------------||
|-------------------------|----------------||
|-------------------------|-3----2----2----||
|-7p5---6p4---5-3---4-2---|-3----2----2----||
|-----0-----0-----0-----0-|------0----0----||
|-------------------------|----------------||





Comments


Popular Judas Priest tabs & chords
Breaking The Law Chords
Between The Hammer And The Anvil 3 Tabs
Conquest Tabs
Diamonds And Rust 2 Tabs
Genocide 1 Tabs
Green Manalishi 1 Tabs
Monsters Of Rock Tabs
Painkiller 1 Tabs
Starbreaker 2 Tabs
Green Manalishi Ukulele


Song lyrics



↑ Back to top | Tablatures and chords are parodies/interpretations of the original songs. You may use it for private study, scholarship, research or language learning purposes only
© 2014 AZChords.com Contact us | Privacy policy | DMCA | Add/correct tabs | Request tabs | Top 50 tabs