» » »

Judas Priest, Breaking The Law Tabs (ver.2)

Artists:  A B C D E F G H I J K L M N O P Q R S T U V W X Y Z # 

Breaking The Law Tabs (ver.2)

Judas Priest Tabs
Rating:
0/5 (0 votes)
Breaking The Law lessons Tabs too difficult? Try these video lessons and learn fast
                
intro:

------------------------------------------
------------------------------------------
------------------------------------------
------------------------------------------
--0-2-3--0-2-3-0-2-3-------0-----0---3-2--
-----------------------1-3---1-3---3------


Riff A:

A.......................C..G..A..     2 times



Bridge to chorus:

F (VIII-pos) F (VIII-pos)     C C     

F (VIII-pos) F (VIII-pos)     E (VII) E E E E (VII ALL THE TIME)



CHORUS:

A .................. A       A (VII)
A .................. A (VII) A (VII)
A .................. A       A (VII)
A .................. A (VII) SLIDE DOWN



RIFF B:

A ......................C..G..A..

A ......................C..D..E..  (E ON VII)



BRIDGE TO CHORUS AGAIN THIS TIME WITH SLIDE DOWN AFTER THE LAST E-CHORD


CHORUS

ANOTHER BRIDGE, I'M NOT SURE ABOUT THIS, I PLAY:

-------------------------------------------------
-------------------------------------------------
-------------------------------------------------
-4-4---4-4-2-2-4-4----4-4-2-2-4-4----4-4-2-2-4-4-
-2-2---2-2-2-2-2-2----2-2-2-2-2-2----2-2-2-2-2-2-
-------------------------------------------------

----------------------------------------------------
----------------------------------------------------
----------------------------------------------------
-4-4-2-2-4-7--10--5--7--10--12--7--10--5--7--10--12-
-2-2-2-2-2-5---8--3--5---8--10--5---8--3--5---8--10-
----------------------------------------------------


INTRO AGAIN (2 TIMES)

OUTTRO:

A ............................ F    G
A ............................ F    G
A ............................ F    G
A ............................ F    G    A


AND THAT'S ALL FOLKS !

GREETINGS FROM THE NETHERLANDS.

Yves van de Vijver,
Eindhoven University of Technology,
the Netherlands.
            
Submit corrections

comments powered by Disqus
↑ Back to top | Judas Priest Tabs for Breaking The Law. Lyrics for acoustic guitar and electric guitar. Tablatures and chords are parodies/interpretations of the original songs. You may use it for private study, scholarship, research or language learning purposes only