» » »

Jua Music, Marshmallow Suicide Tabs (ver.1)

Artists:  A B C D E F G H I J K L M N O P Q R S T U V W X Y Z # 

Marshmallow Suicide Tabs (ver.1)

Jua Music Tabs
 Rating:
4/5 (4 votes)
Marshmallow Suicide lessons Tabs too difficult? Try these video lessons and learn fast
1
                
Intro
|------------------|----------|-----------|--------------|
|------------------|-1st&3rd--|-2nd-------|-4th----------|
|------------------|----------|-----------|--------------|
|------------------|-14----15-|-----------|-13-12-13-12--|
|-13-12-12-13-12-12|----12----|-11-0-10-0-|--------------|
|------------------|----------|-----------|--------------|
end of riff
|------------------------------|
|------------------------------|
|---G1-----------G2------------|
|--13-13-13-12---13-13-13-12---|
|----------------13-13-13-12---|
|----------------11-11-11-10---|
2nd riff
|----------------|-------------------|-------------------|
|----------------|-------------------|-------------------|
|----------------|-------------------|-------------------|
|---10---11---8--|----10----12----13-|----12----15----14-|
|-9----9----9----|-11----11----11----|-13----13----13----|
|----------------|-------------------|-------------------|

|--------------------|------------------|
|--------------------|------------------|
|--------------------|------------------|
|----14----17----15--|---10---11---8----|
|-15----15----15-----|-9----9----9-9----|
|--------------------|------------------|
3rd riff
|------------------------------------------------|
|------------------------------------------------|
|-----------------------------------------11-----|
|-----9-------8-------9------11---------9--------|
|---7---7---7---7---7---7--7----7-----7----------|
|-0-------0-------0-------0---------0------------|

Verse                     prechor (same rhythm as verse)   
|------------------------|--------------|
|------------------------|--------------|
|-9----8----9----11------|-9----11------|
|-9-x8-9-x8-9-x8--9-x8---|-9-x8--9-x8---|
|-7----7----7-----7------|-7-----7------|
|------------------------|--------------|

Chorus
|-----------------------|
|-----------------------|
|-4-—9p8h9—-7-—11h12p11-|
|-4--9------7--12-------|
|-2--7------5--10-------|
|-----------------------|

Bridge
|----2------7----|
|----3------8----|
|-6--4---6--9----|not sure if that’s the last
|-7--5---7--10---|chord but I think it is
|-7--0---7--0----|
|-0------0-------|

Outro Chorus
|----------------------------------|
|----------------------------------|
|-4----7-----4—-9p8h9--7—-11h12p11-|
|-4-x8-7-x8--4--9------7--12-------|
|-2----5-----2--7------5--10-------|
|----------------------------------|

End on
|---------|
|---------|
|---8-----|
|---9-----|
|---7-----|
|---------|
            
Submit corrections

comments powered by Disqus
↑ Back to top | Jua Music Tabs for Marshmallow Suicide. Lyrics for acoustic guitar and electric guitar. 1 Tablatures and chords are parodies/interpretations of the original songs. You may use it for private study, scholarship, research or language learning purposes only