» » »

Jua Music, Mantra Of The Iroquois Tabs (ver.1)

Artists:  A B C D E F G H I J K L M N O P Q R S T U V W X Y Z # 

Mantra Of The Iroquois Tabs (ver.1)

Jua Music Tabs
Rating:
0/5 (0 votes)
Hard to play? Try these video lessons and learn fast.
                Mantra of the Iroquois
Dropped D
Intro
|---------------------------------------------------------|
|---------------------------------------------------------|
|---------------------------------------------------------|
|---------6---7---------4-------—---6---6-7-6---6---5-4---|
|-4-4-5-4---4---4-3-3-5---6-5-3-4-4---7-------4---7-----5-|
|----------------------—----------------------------------|

Pre chorus
|------------------------------------------|
|------------------------------------------|
|------------------------------------------| not sure whether to keep this or not
|------------------------------------------|
|-9p0h9p0h12-12-11-10—9p0h9p0h12—10-11-12--|
|-9p0h9p0h12-----—----9p0h9p0h12-----------|

Chorus
|---------------------------------------------------------------------|
|---------------------------------------------------------------------|
|---------------------------------------------------------------------|
|----------------------------------------------------—----------------|
|-11-11-11--12-14-11-11-11-12-11-10-11-11-11-12-14-11-11-11-14-12-11--|
|-11-11-11------—-11-11-11----------11-11-11-------11-11-11-----------|

1st Verse
|-------------------------------------------------------------------------|
|-------------------------------------------------------------------------|
|-------------------------------------------------------------------------| 
|---76-5---5-6-5------6-------5-------7-6---5-------6---5-6-7---6---5-4---|
|-44--4-433-3-3-3-4-4---4-3-3---3-4-4-----4---7—4-4---7-------4---7-----5-|
|-------------------------------------------------------------------------|
wouldnt fit in completely


2nd Verse
|----------------------------------------------------------------------|
|----------------------------------------------------------------------|
|----------------------------------------------------------------------|
|-------4-4-4-7-6-4-5------7-5---4---------7-6---5---4---4---4---7-6---|
|-4-4-4----------—----7--4-----4---5-7-4-4-----4---4---7---6--—5-----4-|
|---------—------------------------------------------------------------|

Bridge
|----------------------------------------------|
|----------------------------------------------|
|----------------------------------------------|
|------/7-6-7-9-6-7-6--/9-7-6-7-4-6—-7--6-7-6--|
|--4-4----------4—4-4-------------4—-4--4-7-6--|
|---------—------------------------------------|
                                 8x 8x  
|-------------------------------------------------|
|--------------------1st----------------2nd-------|
|-------------------------------------------------|
|--6-/9---6-/14-13---6--7--6--6-7-6-----6--4—-4/--|
|--4-/7---4-/12-11---4-—4--4--4-4-4-----4--2—-1/--|
|---------—---------------------------------------|

Outro
|---------------------------------------------------------------|
|---------------------------------------------------------------|
|---------------------------------------------------------------|
|---7-----5-------7---5-4---------------------------7-----4-----|
|-4---6-5---4-3-4---4—----4-6-7-6-5-7-5-4-7-5-3-4-4---6-5---4---|
|---------—-----------------------------------------------------|

|------------------------------------------------|
|------------------------------------------------|
|------------------------------------------------|
|-----7-6---5---4---4---4---7-6------------------|
|-4-4-----4---4---7--—6---5-----4---slide-at-end-|
|---------—--------------------------------------|
            

comments powered by Disqus
↑ Back to top | Jua Music Tabs for Mantra Of The Iroquois. Lyrics for acoustic guitar and electric guitar. Tablatures and chords are parodies/interpretations of the original songs. You may use it for private study, scholarship, research or language learning purposes only