>
 >
Mantra Of The Iroquois

Mantra Of The Iroquois Guitar Tabs

Jua Music - Mantra Of The Iroquois chords, tabs, tablatures, lyrics

Guitar lessons | Add/correct | Request | Top 50 tabs Artists:  A B C D E F G H I J K L M N O P Q R S T U V W X Y Z 0-9

Mantra Of The Iroquois Guitar Tabs – Jua Music

CD, Sheet music, Poster

Do you like Mantra Of The Iroquois? Share with your friends now
Tabs
Mantra of the Iroquois
Dropped D
Intro
|---------------------------------------------------------|
|---------------------------------------------------------|
|---------------------------------------------------------|
|---------6---7---------4----------6---6-7-6---6---5-4---|
|-4-4-5-4---4---4-3-3-5---6-5-3-4-4---7-------4---7-----5-|
|--------------------------------------------------------|

Pre chorus
|------------------------------------------|
|------------------------------------------|
|------------------------------------------| not sure whether to keep this or not
|------------------------------------------|
|-9p0h9p0h12-12-11-109p0h9p0h1210-11-12--|
|-9p0h9p0h12---------9p0h9p0h12-----------|

Chorus
|---------------------------------------------------------------------|
|---------------------------------------------------------------------|
|---------------------------------------------------------------------|
|--------------------------------------------------------------------|
|-11-11-11--12-14-11-11-11-12-11-10-11-11-11-12-14-11-11-11-14-12-11--|
|-11-11-11-------11-11-11----------11-11-11-------11-11-11-----------|

1st Verse
|-------------------------------------------------------------------------|
|-------------------------------------------------------------------------|
|-------------------------------------------------------------------------| 
|---76-5---5-6-5------6-------5-------7-6---5-------6---5-6-7---6---5-4---|
|-44--4-433-3-3-3-4-4---4-3-3---3-4-4-----4---74-4---7-------4---7-----5-|
|-------------------------------------------------------------------------|
wouldnt fit in completely


2nd Verse
|----------------------------------------------------------------------|
|----------------------------------------------------------------------|
|----------------------------------------------------------------------|
|-------4-4-4-7-6-4-5------7-5---4---------7-6---5---4---4---4---7-6---|
|-4-4-4--------------7--4-----4---5-7-4-4-----4---4---7---6--5-----4-|
|---------------------------------------------------------------------|

Bridge
|----------------------------------------------|
|----------------------------------------------|
|----------------------------------------------|
|------/7-6-7-9-6-7-6--/9-7-6-7-4-6-7--6-7-6--|
|--4-4----------44-4-------------4-4--4-7-6--|
|---------------------------------------------|
                                 8x 8x  
|-------------------------------------------------|
|--------------------1st----------------2nd-------|
|-------------------------------------------------|
|--6-/9---6-/14-13---6--7--6--6-7-6-----6--4-4/--|
|--4-/7---4-/12-11---4-4--4--4-4-4-----4--2-1/--|
|------------------------------------------------|

Outro
|---------------------------------------------------------------|
|---------------------------------------------------------------|
|---------------------------------------------------------------|
|---7-----5-------7---5-4---------------------------7-----4-----|
|-4---6-5---4-3-4---4----4-6-7-6-5-7-5-4-7-5-3-4-4---6-5---4---|
|--------------------------------------------------------------|

|------------------------------------------------|
|------------------------------------------------|
|------------------------------------------------|
|-----7-6---5---4---4---4---7-6------------------|
|-4-4-----4---4---7--6---5-----4---slide-at-end-|
|-----------------------------------------------|





Comments


Popular Jua Music tabs & chords
All Around The Mulberry Bush Tabs
Coma 6 Tabs
Death Showers Tabs
Exploding Pineapples Tabs
Marshmallow Suicide Tabs
Sandwich Mafia Tabs
Scissor Tits Tabs
The Annexation Of Puerto Rico Tabs


Song lyrics



↑ Back to top | Tablatures and chords are parodies/interpretations of the original songs. You may use it for private study, scholarship, research or language learning purposes only
© 2014 AZChords.com Contact us | Privacy policy | DMCA | Add/correct tabs | Request tabs | Top 50 tabs