» » »

Exploding Pineapples Tabs (ver.1)

Artists:  A B C D E F G H I J K L M N O P Q R S T U V W X Y Z # 

Exploding Pineapples Tabs (ver.1)

Jua Music
Rating:
0/5 (0 votes)

Hard to play? Try these video lessons and learn fast.
                Exploding pineapples 

Intro 
                                         1st 
|---------------------------------------------|----------------| 
|---------------------------------------------|----------------|
|---------------------------------------------|----------------| 
|---------------------------------------------|-------5-7-5----|
|-5h7-------------------------5h7-------------|-5-7-8-------8--| 
|-----8-0-0-0-0-0-8-8-8-7-5-0-----8-0-0-0-0-0-|----------------|

   2nd             3rd               4th 
|----------------|----------------|----------------| 
|----------------|----------------|----------------| 
|----------------|----------------|----------------| 
|-----4-5-4------|-----7-5--------|-------7-5------| 
|-5-7-------7-5--|-5-8-----8-7-5--|-5-7-8-----8-7--| 
|----------------|----------------|----------------|

 Verse				         	1st	     2nd 	
|----------------|---------------------------------------|------------|
|----------------|---------------------------------------|------------|
|----------------|---------------------------------------|------------|
|-7----------7/--|-7/9---------------7/9---7/9---7/9-7/9-|-7/9—-10/9--|
|-5----------5/--|-5/7---------------5/7---5/7---5/7—5/7-|-5/7—--8/7--|
|----------------|-----0-0-0-0-0-0-0-----0-----0---------|------------|

Pre chorus
|-------------------|---------------|
|-------------------|---------------| 
|-------------------|---------------|
|-----7—-6--7--6--4-|7--6--7--9--4--| 
|-----5—-4--5--4--2-|5--4--5--7--2--| 
|-12/---------------|------------0--|

Chorus
|-------------------------------------------------|
|-------------------------------------------------| 
|-------------------------------------------------|
|-7/9----------7/9----------7/9x—10-x10-10-x-10/9-| 
|-5/7----------5/7----------5/7x--8-x-8--8-x—-8/7-| 
|-----0-0-7-5~-----0-0-8-7~-----------------------|

Bridge			2x	Solo      possible overdubbed guitar
|----------------------|-----------------|-----------------------| 
|----------------------|-----------------|-----------------------| 
|----------------------|-----------------|-----4-----------------| 
|------5-7-7--9-10-9---|-7-9-------------|---7---5---5---4-------| 
|-12/--7---5--7--8-7---|-5-7-10-9-9/10/9-|-5-------3---2---2h3p2-| 
|----------------------|------8-7-7/-8/7-|-----------------------|

Ending of outro chorus
|------------------------------------------|
|------------------------------------------| 
|------------------------------------------|
|-10-x-10-10-x10/9---3 times-------7/10-9--| 
|--8-x--8--8-x-8/7-----------------5/-8-7--| 
|------------------------------------------|


Bass (intro,verse,chorus same as guitars)
Pre-chorus
|-----------------1st---------2nd----|
|---7---9-6--------------------------| 
|-5---7-----7-----5-4---------5-7----|
|---------------------7-----------0--| 

Bridge
|-----------------------|
|---5--7----------------| 
|---------5---7--8------|
|-------------------7---| 

Solo
|---------9-----------------------9---9--12-11-11h12-11--|
|---7---9---9--10-9-9h10-9----7-----9--------------------| 
|-5---7---------------------5---7------------------------|
|--------------------------------------------------------|
            
Hard to play? Try these video lessons and learn fast. | Correct




comments powered by Disqus
↑ Back to top | Tablatures and chords are parodies/interpretations of the original songs. You may use it for private study, scholarship, research or language learning purposes only