» » »

Jua Music, Coma Tabs (ver.1)

Artists:  A B C D E F G H I J K L M N O P Q R S T U V W X Y Z # 

Coma Tabs (ver.1)

Jua Music Tabs
 Rating:
4/5 (4 votes)
Coma lessons Tabs too difficult? Try these video lessons and learn fast
1
                "(6)
Jua Music
Dropped D

Intro/verse
|-------------------------|--------------------------|
|-------------------------|--------------------------|
|-------------------------|---------------5-----7----|
|---------5---------------|---------5-------7-----8--|
|---7-5-----7---------8-7-|---7-5-----7--------------|
|-0-----0-----0-8-7-0-----|-0-----0-----0-----0------|

|------------------------------|
|------------------------------|
|------------------------------|
|---------7-----8------10------|
|---7-5-----8-----10------12---|
|-0-----0-----0------0---------|

|---------------------|------------------------|
|---------------------|------------------------|
|---------------------|------------------------|
|---------------------|---------5p3------------|
|---7-5---3-----------|---7p5---------3p0------|
|-0-----0---0-5-3-0-2-|-0-----0-----0-----0-3--|

Chorus
|---------------------------------------|
|---------------------------------------|
|---------------------------------------|
|-8--------0-----0-----5-------0----0---|
|-8x4---10-----8-------5x4---3----1-----|
|-8--10------8-----7---5---3----2-----3-|

|---------------------------------------------|
|---------------------------------------------|
|---------------------------------------------|
|-10---------0-------0-----7-------0-----0----|
|-10x4----12------10-------7x4---5-----3------|
|-10---12------10------8---7---5-----3-----2--|

Bridge
|---------|---------|-----------|------------|
|--G1-----|---------|---G2------|------------|
|---------|---------|-----------|------------|
|-0-12-15-|-0-12-14-|-----------|------------|
|---------|---------|-0--10--8--|-0--10--7---|
|-----x4--|-----x4--|-----x4----|------x4----|

Interlude         
|-----------------------------------------------|
|-----------------------------------------------|
|-----------------------------------------------|
|------------------------8-7-10-7---7----8-7----|
|--------7-8----10-8-7------------8---10-----8--|
|-7-8-10-----10--------7------------------------|
"            
Submit corrections

comments powered by Disqus
↑ Back to top | Jua Music Tabs for Coma. Lyrics for acoustic guitar and electric guitar. 1 Tablatures and chords are parodies/interpretations of the original songs. You may use it for private study, scholarship, research or language learning purposes only