» » »

J-rocks, Spirit Tabs (ver.1)

Artists:  A B C D E F G H I J K L M N O P Q R S T U V W X Y Z # 

Spirit Tabs (ver.1)

J-rocks Tabs
Rating:
0/5 (0 votes)
Spirit lessons Tabs too difficult? Try these video lessons and learn fast
                Interlude Spirit (j-rocks)

   G                    F#m                      G
E|--------------------|------------------------|---------------|
B|--5h10-10h12-----7--|-5---------5---5-7-5-7--|-7-7h10-----7--|
G|-------------9-7----|-----7-6-7---7----------|--------9-7----|
D|--------------------|---7--------------------|---------------|
A|--------------------|------------------------|---------------|
E|--------------------|------------------------|---------------|

   Bm      G                  F#m                        
E|--------|-----------------|--------------------------|
B|-5------|-3h7-7h10---7-8--|-7-7---------5------------|
G|---6-6--|----------9------|-----9-7-6-7---6-7-6-4-4--|
D|--------|-----------------|--------------------------|
A|--------|-----------------|--------------------------|
E|--------|-----------------|--------------------------|

   Em   
E|-----------------5-5---------------------------12-12--|
B|-------5-5-----------10-10-10-12-12---10-10-10--------|
G|-7-7-7-----7-7-7--------------------------------------|
D|------------------------------------------------------|
A|------------------------------------------------------|
E|------------------------------------------------------|

   A                      
E|-14-14-14-14-14-14-14--|
B|-10-10-10-10-10-10-10--|
G|-----------------------|
D|-----------------------|
A|-----------------------|
E|-----------------------|

Reff:

   D    A   Bbm    Bm   A   G#       G        A,F#m,Bm,Em,A...dst
E|-10-|-9--|-9---|-10-|-9--|-8--10--|-10--|     
B|-10-|-10-|-11--|-12-|-10-|-9--9---|-8---|
G|----|-9--|-10--|-11-|-9--|-8------|-----|
D|----|----|-----|----|----|--------|-----|
A|----|----|-----|----|----|--------|-----|
E|----|----|-----|----|----|--------|-----|


salam kenal
qhu uda lama nemuin nya tp bru skrg bs share...
thx.....n bwat yg mw complain...give me comments.......tab ini juga ada di blog 
ku...visit in there!!
spirit 4 j-rocks..
            
Submit corrections

comments powered by Disqus
↑ Back to top | J-rocks Tabs for Spirit. Lyrics for acoustic guitar and electric guitar. Tablatures and chords are parodies/interpretations of the original songs. You may use it for private study, scholarship, research or language learning purposes only