>
 >
Meraih Mimpi

Meraih Mimpi Guitar Tabs

J-rocks - Meraih Mimpi chords, tabs, tablatures, lyrics

Guitar lessons | Add/correct | Request | Top 50 tabs Artists:  A B C D E F G H I J K L M N O P Q R S T U V W X Y Z 0-9

Meraih Mimpi Guitar Tabs – J-rocks

CD, Sheet music, Poster

Do you like Meraih Mimpi? Share with your friends now
ChordsChords v2TabsTabs v2
Meraih Mimpi By J-Rocks


     E  H.           E      E  E  E  E  E  E  E  E   
E||----------------------|--------------------------|
B||----------------------|--------------------------|
G||----------------------|--------------------------|
D||----------------------|--------------5--6--------|
A||----------------------|--------7-----------7--6--|
E||------------------3h--|--5--5-----5--------------|


  E  E  E  E   E  E  E  E      E  E  E  E  E  E  E  E   
----------------------------|--------------------------|
----------------------------|--------------------------|
----------------------------|--------------------------|
--------7---------5---------|--------------5--6--------|
--5--5-----5s--3-----3------|--------7-----------7--6--|
------------------------3s--|--5--5-----5--------------|


  E  E  E  E   E  E  E  E     E  E  E  E  E  E  E  E   
---------------------------|--------------------------|
---------------------------|--------------------------|
---------------------------|--------------------------|
--------7---------5--------|--------------5--6--------|
--5--5-----5s--3-----3-----|--------7-----------7--6--|
------------------------3--|--5--5-----5--------------|


  E  E  E  E  E  E  E  E     E  E  E  E  E  E  E  E   
--------------------------|--------------------------|
--------------------------|--------------------------|
--------------------------|--------------------------|
--------7-----------5-----|--------------5--6--------|
--5--5-----5--3--3-----3--|--------7-----------7--6--|
--------------------------|--5--5-----5--------------|


  E  E  E  E  E  E  E  E     E  E  E  E  E  E  E  E   
--------------------------|--------------------------|
--------------------------|--------------------------|
--------------------------|--------------------------|
--------7-----------5-----|--------------5--6--------|
--5--5-----5--3--3-----3--|--------7-----------7--6--|
--------------------------|--5--5-----5--------------|


  E  E  E  E  E  E  E  E     E  E  E  E  E  E  E  E   
--------------------------|--------------------------|
--------------------------|--------------------------|
--------------------------|--------------------------|
--------7-----------5-----|--------------5--6--------|
--5--5-----5--3--3-----3--|--------7-----------7--6--|
--------------------------|--5--5-----5--------------|


  E  E  E  E  E  E  E  E     E  E  E  E  E  E  E  E   
--------------------------|--------------------------|
--------------------------|--------------------------|
--------------------------|--------------------------|
--------7-----------5-----|--------------5--6--------|
--5--5-----5--3--3-----3--|--------7-----------7--6--|
--------------------------|--5--5-----5--------------|


  E  E  E  E  E  E  E  E     E  E  Q    E  E  Q       E  E  Q    E  E  Q     
--------------------------|------------------------|------------------------|
--------------------------|------------------------|------------------------|
--------------------------|--------9----------9----|--------9----------9----|
--------7-----------5-----|--x--x--9----x--x--9----|--x--x--9----x--x--9----|
--5--5-----5--3--3-----3--|--x--x--7----x--x--7----|--x--x--7----x--x--7----|
--------------------------|--x--x-------x--x-------|--x--x-------x--x-------|


  E  E  E  E  E  E  E  E     E  E  E  E  E  E  E  E   
--------------------------|--------------------------|
--------------------------|--------------------------|
--------------------------|--------------------------|
--------------------------|--------------------------|
--7--7--7--7--7--7--7--7--|--4--4--4--4--4--4--4--4--|
--5--5--5--5--5--5--5--5--|--2--2--2--2--2--2--2--2--|


  E  E  E  E  E  E  E  E     E  E  E  E  E  E  E  E   
--------------------------|--------------------------|
--------------------------|--------------------------|
--------------------------|--------------------1-----|
--4--4--4--4--4--4--4--4--|--2--2--2--2--2--4-----2--|
--2--2--2--2--2--2--2--2--|--2--2--2--2--2--2--------|
--------------------------|--0--0--0--0--0--0--0--0--|


  E  E  E  E  E  E  E  E     E  E  E  E  E  E  E  E   
--------------------------|--------------------------|
--------------------------|--------------------------|
--------------------------|--------------------------|
--------------------------|--------------------------|
--7--7--7--7--7--7--7--7--|--4--4--4--4--4--4--4--4--|
--5--5--5--5--5--5--5--5--|--2--2--2--2--2--2--2--2--|


  E  E  E  E  E  E  E  E     E  E  E  E  E  E  E  E   
--------------------------|--------------------------|
--------------------------|--------------------------|
--------------------------|--------------------------|
--4--4--4--4--4--4--4--4--|--2--2--2--2--2--2--2--2--|
--2--2--2--2--2--2--2--2--|--2--2--2--2--2--2--2--2--|
--------------------------|--0--0--0--0--0--0--0--0--|


  E  E  E  E  E  E  E  E     E  E  E  E  E  E  E  E   
--------------------------|--------------------------|
--------------------------|--------------------------|
--------------------------|--------------------------|
--7--7--7--7--7--7--7--7--|--7--7--7--7--7--7--7--7--|
--5--5--5--5--5--5--5--5--|--5--5--5--5--5--5--5--5--|
--------------------------|--------------------------|


  E  E  E  E  E  E  E  E     E  E  E  E  E  E  E  E   
--------------------------|--------------------------|
--------------------------|--------------------------|
--------------------------|--------------------------|
--------------------------|--------------------------|
--7--7--7--7--7--7--7--7--|--7--7--7--7--7--7--7--7--|
--5--5--5--5--5--5--5--5--|--5--5--5--5--5--5--5--5--|


  E  E  E  E  E  E  E  E     E  E  E  E  E  E  E  E   
--------------------------|--------------------------|
--------------------------|--------------------------|
--------------------------|--------------------------|
--7--7--7--7--7--7--7--7--|--7--7--7--7--7--7--7--7--|
--5--5--5--5--5--5--5--5--|--5--5--5--5--5--5--5--5--|
--------------------------|--------------------------|


  E  E  E  E  E  E  E  E     S S S S S S S S S S S S S S S S  
--------------------------|----------------------------------|
--------------------------|----------------------------------|
--------------------------|--9-9-9-9-9---9-9-9-9-9---9-9-9-9-|
--9--9--9--9--9--9--9--9--|--9-9-9-9-9---9-9-9-9-9---9-9-9-9-|
--7--7--7--7--7--7--7--7--|--7-7-7-7-7---7-7-7-7-7---7-7-7-7-|
--------------------------|----------------------------------|


  E  E  E  E  E  E  E  E     E  E  E  E  E  E  E  E     E  E  Q    E  E  E  E   
--------------------------|--------------------------|--x--x-------------------|
--------------------------|--------------------------|--x--x-------------------|
--------------------------|--------------------------|--x--x-------------------|
--------------------------|--------------------------|--x--x--4----4--4--4--4--|
--7--7--7--7--7--7--7--7--|--4--4--4--4--4--4--4--4--|--x--x--2----2--2--2--2--|
--5--5--5--5--5--5--5--5--|--2--2--2--2--2--2--2--2--|--x--x-------------------|


  E  E  E  E  E  E  E  E     E  E  E  E  E  E  E  E   
--------------------------|--------------------------|
--------------------------|--------------------------|
--------------------------|--------------------------|
--2--2--2--2--2--2--2--2--|--------------------------|
--2--2--2--2--2--2--2--2--|--7--7--7--7--7--7--7--7--|
--0--0--0--0--0--0--0--0--|--5--5--5--5--5--5--5--5--|


  E  E  E  E  E  E  E  E     E  E  Q    E  E  E  E   
--------------------------|--x--x-------------------|
--------------------------|--x--x-------------------|
--------------------------|--x--x-------------------|
--------------------------|--x--x--4----4--4--4--4--|
--4--4--4--4--4--4--4--4--|--x--x--2----2--2--2--2--|
--2--2--2--2--2--2--2--2--|--x--x-------------------|


  S S S S S S S S S S S S S S S S    Q    E  Q    E  Q       W                 
----------------------------------|-----------------------|-------------------|
----------------------------------|-----------------------|-------------------|
--9---9-9-9-9-9---9-9-9---9-9-9-9-|-------x-------x-------|-------------------|
--9---9-9-9-9-9---9-9-9---9-9-9-9-|--5----x--5----x--5----|--L----------------|
--7---7-7-7-7-7---7-7-7---7-7-7-7-|--5----x--5----x--5----|--L----------------|
----------------------------------|--3----x--3----x--3----|--L----------------|


  E  E  E  E  E  E  E  E     E  E  E  E  E  E  E  E   
--------------------------|--------------------------|
--------------------------|--------------------------|
--------------------------|--------------------------|
--------------------------|--------------------------|
--7--7--7--7--7--7--7--7--|--4--4--4--4--4--4--4--4--|
--5--5--5--5--5--5--5--5--|--2--2--2--2--2--2--2--2--|


  E  E  E  E  E  E  E  E     E  E  E  E  E  E  E  E   
--------------------------|--------------------------|
--------------------------|--------------------------|
--------------------------|--------------------1-----|
--4--4--4--4--4--4--4--4--|--2--2--2--2--2--4-----2--|
--2--2--2--2--2--2--2--2--|--2--2--2--2--2--2--------|
--------------------------|--0--0--0--0--0--0--0--0--|


  E  E  E  E  E  E  E  E     E  E  E  E  E  E  E  E   
--------------------------|--------------------------|
--------------------------|--------------------------|
--------------------------|--------------------------|
--------------------------|--------------------------|
--7--7--7--7--7--7--7--7--|--4--4--4--4--4--4--4--4--|
--5--5--5--5--5--5--5--5--|--2--2--2--2--2--2--2--2--|


  E  E  E  E  E  E  E  E     E  E  E  E  E  E  E  E   
--------------------------|--------------------------|
--------------------------|--------------------------|
--------------------------|--------------------------|
--4--4--4--4--4--4--4--4--|--2--2--2--2--2--2--2--2--|
--2--2--2--2--2--2--2--2--|--2--2--2--2--2--2--2--2--|
--------------------------|--0--0--0--0--0--0--0--0--|


  E  E  E  E  E  E  E  E     E  E  E  E  E  E  E  E   
--------------------------|--------------------------|
--------------------------|--------------------------|
--7--7--7--7--7--x--x--x--|--7--7--7--7--7--x--x--x--|
--7--7--7--7--7--x--x--x--|--7--7--7--7--7--x--x--x--|
--5--5--5--5--5--x--x--x--|--5--5--5--5--5--x--x--x--|
--------------------------|--------------------------|


  E  E  E  E  E  E  E  E     E  E  E  E  E  E  E  E   
--------------------------|--------------------------|
--------------------------|--------------------------|
--6--6--6--6--6--x--x--x--|--6--6--6--6--6--x--x--x--|
--7--7--7--7--7--x--x--x--|--7--7--7--7--7--x--x--x--|
--7--7--7--7--7--x--x--x--|--7--7--7--7--7--x--x--x--|
--5--5--5--5--5-----------|--5--5--5--5--5-----------|


  E  E  E  E  E  E  E  E     E  E  E  E  E  E  E  E   
--------------------------|--------------------------|
--------------------------|--------------------------|
--7--7--7--7--7--x--x--x--|--7--7--7--7--7--x--x--x--|
--7--7--7--7--7--x--x--x--|--7--7--7--7--7--x--x--x--|
--5--5--5--5--5--x--x--x--|--5--5--5--5--5--x--x--x--|
--------------------------|--------------------------|


  E  E  E  E  E  E  E  E     S S S S S S S S S S S S S S S S  
--------------------------|----x-------x-------x-------------|
--------------------------|----x-------x-------x-------------|
--9--9--9--9--9--9--9--9--|--9-x-9-9-9-x-9-9-9-x-9-9-9-9-9-9-|
--9--9--9--9--9--9--9--9--|--9-x-9-9-9-x-9-9-9-x-9-9-9-9-9-9-|
--7--7--7--7--7--7--7--7--|--7-x-7-7-7-x-7-7-7-x-7-7-7-7-7-7-|
--------------------------|----------------------------------|


  E  E  E  E  E  E  E  E     E  E  E  E  E  E  E  E     E  E  Q    E  E  E  E   
--------------------------|--------------------------|--x--x-------------------|
--------------------------|--------------------------|--x--x-------------------|
--------------------------|--------------------------|--x--x-------------------|
--------------------------|--------------------------|--x--x--4----4--4--4--4--|
--7--7--7--7--7--7--7--7--|--4--4--4--4--4--4--4--4--|--x--x--2----2--2--2--2--|
--5--5--5--5--5--5--5--5--|--2--2--2--2--2--2--2--2--|--x--x-------------------|


  E  E  E  E  E  E  E  E     E  E  E  E  E  E  E  E   
--------------------------|--------------------------|
--------------------------|--------------------------|
--------------------------|--------------------------|
--2--2--2--2--2--2--2--2--|--------------------------|
--2--2--2--2--2--2--2--2--|--7--7--7--7--7--7--7--7--|
--0--0--0--0--0--0--0--0--|--5--5--5--5--5--5--5--5--|


  E  E  E  E  E  E  E  E     E  E  Q    E  E  E  E   
--------------------------|--x--x-------------------|
--------------------------|--x--x-------------------|
--------------------------|--x--x-------------------|
--------------------------|--x--x--4----4--4--4--4--|
--4--4--4--4--4--4--4--4--|--x--x--2----2--2--2--2--|
--2--2--2--2--2--2--2--2--|--x--x-------------------|


  S S S S S S S S S S S S S S S S    W                   W                 
----------------------------------|-------------------|-------------------|
----------------------------------|-------------------|-------------------|
--9---9-9-9-9-9---9-9-9---9-9-9-9-|--4----------------|--4----------------|
--9---9-9-9-9-9---9-9-9---9-9-9-9-|--5----------------|--5----------------|
--7---7-7-7-7-7---7-7-7---7-7-7-7-|--5----------------|--5----------------|
----------------------------------|--3----------------|--3----------------|


  W                   W                   W                   W                 
-------------------|-------------------|-------------------|-------------------|
-------------------|-------------------|-------------------|-------------------|
--2----------------|--2----------------|--4----------------|--4----------------|
--3----------------|--3----------------|--5----------------|--5----------------|
--3----------------|--3----------------|--5----------------|--5----------------|
--1----------------|--1----------------|--3----------------|--3----------------|


  W                   W                   W                   W                 
-------------------|-------------------|-------------------|-------------------|
-------------------|-------------------|-------------------|-------------------|
--6----------------|--6----------------|-------------------|-------------------|
--7----------------|--7----------------|--7----------------|--L----------------|
--7----------------|--7----------------|--7----------------|--L----------------|
--5----------------|--5----------------|--5----------------|--L----------------|


  W                   H.           E  E     W                 
-------------------|---------------------|-------------------|
-------------------|---------------------|-------------------|
-------------------|---------------x--x--|-------------------|
--7----------------|--L------------x--x--|--7----------------|
--7----------------|--L------------x--x--|--7----------------|
--5----------------|--L------------------|--5----------------|


  W                   W                   W                 
-------------------|-------------------|-------------------|
-------------------|-------------------|-------------------|
-------------------|-------------------|-------------------|
--L----------------|--7----------------|--L----------------|
--L----------------|--7----------------|--L----------------|
--L----------------|--5----------------|--L----------------|


   T   T   T   T  T   T   T   T  T   T   T   T  T   T   T   T  
   S   S   S   S  S   S   S   S  S   S   S   S  S   S   S   S  
--------------------------------------------------------------|
--14p-10h-12h-14-10h-12h-14p-10-14p-10h-12h-14-10h-12h-14p-10-|
--------------------------------------------------------------|
--14---L--14---L-14---L--14---L-14---L--14---L-14---L--14---L-|
--------------------------------------------------------------|
--------------------------------------------------------------|


   T   T   T   T  T   T   T   T  T   T   T   T  T   T   T   T  
   S   S   S   S  S   S   S   S  S   S   S   S  S   S   S   S  
--------------------------------------------------------------|
--14p-10h-12h-14-10h-12h-14p-10-14p-10h-12h-14-10h-12h-14p-10-|
--------------------------------------------------------------|
--14---L--14---L-14---L--14---L-14---L--14---L-14---L--14---L-|
--------------------------------------------------------------|
--------------------------------------------------------------|


   T   T   T   T  T   T   T   T  T   T   T   T  T   T   T   T  
   S   S   S   S  S   S   S   S  S   S   S   S  S   S   S   S  
--------------------------------------------------------------|
--14p-10h-12h-14-10h-12h-14p-10-14p-10h-12h-14-10h-12h-14p-10-|
--------------------------------------------------------------|
--14---L--14---L-14---L--14---L-14---L--14---L-14---L--14---L-|
--------------------------------------------------------------|
--------------------------------------------------------------|


   T   T   T   T  T   T   T   T  T   T   T   T  T   T   T   T  
   S   S   S   S  S   S   S   S  S   S   S   S  S   S   S   S  
--------------------------------------------------------------|
--14p-10h-12h-14-10h-12h-14p-10-14p-10h-12h-14-10h-12h-14p-10-|
--------------------------------------------------------------|
--14---L--14---L-14---L--14---L-14---L--14---L-14---L--14---L-|
--------------------------------------------------------------|
--------------------------------------------------------------|


  T  T  T   T T  T   T  T T  T  T   T T  T   T  T  
  S  S  S   S S  S   S  S S  S  S   S S  S   S  S  
--9p-7h-9h-10-7h-9h-10p-7-9p-7h-9h-10-7h-9h-10p-7-|
--------------------------------------------------|
--9--L--9---L-9--L---9--L-9--L--9---L-9--L---9--L-|
--------------------------------------------------|
--------------------------------------------------|
--------------------------------------------------|


  T  T  T   T T  T   T  T T  T  T   T T  T   T  T  
  S  S  S   S S  S   S  S S  S  S   S S  S   S  S  
--9p-7h-9h-10-7h-9h-10p-7-9p-7h-9h-10-7h-9h-10p-7-|
--------------------------------------------------|
--9--L--9---L-9--L---9--L-9--L--9---L-9--L---9--L-|
--------------------------------------------------|
--------------------------------------------------|
--------------------------------------------------|


   T  T   T   T T   T   T  T  T  T   T   T T   T   T  T  
   S  S   S   S S   S   S  S  S  S   S   S S   S   S  S  
--12p-9h-10h-12-9h-10h-12p-9-12p-9h-10h-12-9h-10h-12p-9-|
--------------------------------------------------------|
---9--L---9---L-9---L---9--L--9--L---9---L-9---L---9--L-|
--------------------------------------------------------|
--------------------------------------------------------|
--------------------------------------------------------|


   T   T   T   T  T   T   T   T  T   T   T   T  T   T   T   T  
   S   S   S   S  S   S   S   S  S   S   S   S  S   S   S   S  
--14p-10h-12h-14-10h-12h-14p-10-14p-10h-12h-14-10h-12h-14p-10-|
--------------------------------------------------------------|
---9---L---9---L--9---L---9---L--9---L---9---L--9---L---9---L-|
--------------------------------------------------------------|
--------------------------------------------------------------|
--------------------------------------------------------------|


  E  E  E  E  E  E  E  E     E  E  E  E  E  E  E  E   
--------------------------|--------------------------|
--------------------------|--------------------------|
--------------------------|--------------------------|
--7--7--7--7--7--7--7--7--|--4--4--4--4--4--4--4--4--|
--7--7--7--7--7--7--7--7--|--4--4--4--4--4--4--4--4--|
--5--5--5--5--5--5--5--5--|--2--2--2--2--2--2--2--2--|


  E  E  E  E  E  E  E  E     E  E  E  E  E  E  E  E   
--------------------------|--------------------------|
--------------------------|--------------------------|
--------------------------|--------------------------|
--4--4--4--4--4--4--4--4--|--2--2--2--2--2--2--2--2--|
--2--2--2--2--2--2--2--2--|--2--2--2--2--2--2--2--2--|
--------------------------|--0--0--0--0--0--0--0--0--|


  E  E  E  E  E  E  E  E     E  E  E  E  E  E  E  E   
--------------------------|--------------------------|
--------------------------|--------------------------|
--------------------------|--------------------------|
--7--7--7--7--7--7--7--7--|--4--4--4--4--4--4--4--4--|
--7--7--7--7--7--7--7--7--|--4--4--4--4--4--4--4--4--|
--5--5--5--5--5--5--5--5--|--2--2--2--2--2--2--2--2--|


  E  E  E  E  E  E  E  E     S S S S S S S S S S S S S S S S  
--------------------------|----------------------------------|
--------------------------|----------------------------------|
--------------------------|--9-9-9-9-9---9-9-9-9-9---9-9-9-9-|
--4--4--4--4--4--4--4--4--|--9-9-9-9-9---9-9-9-9-9---9-9-9-9-|
--2--2--2--2--2--2--2--2--|--7-7-7-7-7---7-7-7-7-7---7-7-7-7-|
--------------------------|----------------------------------|


  E  E  E  E  E  E  E  E     E  E  E  E  E  E  E  E   
--------------------------|--------------------------|
--------------------------|--------------------------|
--------------------------|--------------------------|
--7--7--7--7--7--7--7--7--|--4--4--4--4--4--4--4--4--|
--7--7--7--7--7--7--7--7--|--4--4--4--4--4--4--4--4--|
--5--5--5--5--5--5--5--5--|--2--2--2--2--2--2--2--2--|


  E  E  E  E  E  E  E  E     E  E  E  E  E  E  E  E   
--------------------------|--------------------------|
--------------------------|--------------------------|
--------------------------|--------------------------|
--4--4--4--4--4--4--4--4--|--2--2--2--2--2--2--2--2--|
--2--2--2--2--2--2--2--2--|--2--2--2--2--2--2--2--2--|
--------------------------|--0--0--0--0--0--0--0--0--|


  E  E  E  E  E  E  E  E     E  E  E  E  E  E  E  E   
--------------------------|--------------------------|
--------------------------|--------------------------|
--------------------------|--------------------------|
--7--7--7--7--7--7--7--7--|--4--4--4--4--4--4--4--4--|
--7--7--7--7--7--7--7--7--|--4--4--4--4--4--4--4--4--|
--5--5--5--5--5--5--5--5--|--2--2--2--2--2--2--2--2--|


  E  E  E  E  E  E  E  E     S S S S S S S S S S S S S S S S  
--------------------------|----------------------------------|
--------------------------|----------------------------------|
--------------------------|--9-9-9-9-9---9-9-9-9-9---9-9-9-9-|
--4--4--4--4--4--4--4--4--|--9-9-9-9-9---9-9-9-9-9---9-9-9-9-|
--2--2--2--2--2--2--2--2--|--7-7-7-7-7---7-7-7-7-7---7-7-7-7-|
--------------------------|----------------------------------|


  E  E  E  E  E  E  E  E     E  E  E  E  E  E  E  E   
--------------------------|--------------------------|
--------------------------|--------------------------|
--------------------------|--------------------------|
--------------5--6--------|--------7-----------5-----|
--------7-----------7--6--|--5--5-----5--3--3-----3--|
--5--5-----5--------------|--------------------------|


  E  E  E  E  E  E  E  E     E  E  E  E  E  E  E  E   
--------------------------|--------------------------|
--------------------------|--------------------------|
--------------------------|--------------------------|
--------------5--6--------|--------7-----------5-----|
--------7-----------7--6--|--5--5-----5--3--3-----3--|
--5--5-----5--------------|--------------------------|


  E  E  E  E  E  E  E  E     E  E  E  E  E  E  E  E   
--------------------------|--------------------------|
--------------------------|--------------------------|
--------------------------|--------------------------|
--------------5--6--------|--------7-----------5-----|
--------7-----------7--6--|--5--5-----5--3--3-----3--|
--5--5-----5--------------|--------------------------|


  E  E  E  E  E  E  E  E     E  E  E  E  E  E  E  E     E  E  H.            
--------------------------|--------------------------|---------------------|
--------------------------|--------------------------|--x--x---------------|
--------------------------|--------------------------|--x--x--6------------|
--------------5--6--------|--------7-----------5-----|--x--x--7------------|
--------7-----------7--6--|--5--5-----5--3--3-----3--|--x--x--7------------|
--5--5-----5--------------|--------------------------|--------5------------|


  W                  
-------------------||
-------------------||
--L----------------||
--L----------------||
--L----------------||
--L----------------||




Duration Legend
---------------
W - whole
H - half
Q - quarter
E - 8th
S - 16th
T - 32nd
X - 64th
. - note dotted
|-n-|  - n-tuplets


Tablature Legend
----------------
L - tied note
x - dead note
g - grace note
(n) - ghost note
> - accentuded note
NH - natural harmonic
AH - artificial harmonic
TH - tapped harmonic
SH - semi harmonic
PH - pitch harmonic
h - hammer on
p - pull off
b - bend
br - bendRelease
pb - preBend
pbr - preBendRelease
brb - bendReleaseBend
\n/ - tremolo bar dip
\n - tremolo bar dive
-/n - tremolo bar Release up
/n\ - tremolo bar inverted dip
/n - tremolo bar return
-\n - tremolo bar Release down
S - shift slide
s - legato slide
/ -  slide into from below or out of upwards
\ -  slide into from above or out of downwards
~ - vibrato
W - wide vibrato
tr - trill
TP - tremolo picking
T - tapping
S - slap
P - pop
< - fade in
^ - brush up
v - brush down





Comments


Popular J-rocks tabs & chords
Kau Curi Lagi Bass Tabs
Ceria Chords
Ceria Chord Chords
Hanya Aku Chords
Kau Curi Lagi Feat Prisa Chords
Serba Salah 1 Chords
Lepaskan Diriku 1 Tabs
Meraih Mimpi Intro Tabs
Selamat Tinggal Kekasihku Intro Tabs
Cobalah Kau Mengerti Vers2 Ukulele


Song lyrics



↑ Back to top | Tablatures and chords are parodies/interpretations of the original songs. You may use it for private study, scholarship, research or language learning purposes only
© 2014 AZChords.com Contact us | Privacy policy | DMCA | Add/correct tabs | Request tabs | Top 50 tabs