>
 >
Kau Curi Lagi

Kau Curi Lagi Bass Tabs

J-rocks - Kau Curi Lagi chords, tabs, tablatures, lyrics

Guitar lessons | Add/correct | Request | Top 50 tabs Artists:  A B C D E F G H I J K L M N O P Q R S T U V W X Y Z 0-9

Kau Curi Lagi Bass Tabs – J-rocks

CD, Sheet music, Poster

Do you like Kau Curi Lagi? Share with your friends now
Bass TabsChordsChords v2Tabs
                          Kau Curi Lagi (feat Prisa)                            


                                                                          J-Rock
Bass



     W                   Q    Q    E  E  E  E     Q    Q    E  E  E  E   
G||-------------------|------------------------|------------------------|
D||-------------------|------------------------|---------------------5--|
A||-------------------|------------------------|------------------------|
E||-------------------|--3----3----3--3--3--3--|--3----3----3--3--3-----|


  Q    Q    E  E  E  E     Q    Q    E  E  E  E     Q    Q    E  E  E  E   
------------------------|------------------------|------------------------|
------------------------|------------------0--2--|------------------------|
------------------------|------------0--2--------|------------------------|
--3----3----3--3--3--3--|--3----3----------------|--0----0----0--0--0--0--|


  Q    Q    E  E  E  E     Q    Q    E  E  E  E     Q    Q    Q    E  E   
------------------------|------------------------|-----------------------|
-------2----2--------2--|------------------------|------------2-------2--|
---------------0--2-----|------------------------|-----------------------|
--0---------------------|--0----0----0--0--0--0--|--0----0---------0-----|


  Q    E  E  Q    E  E     E  E  E  E  Q    E  E     Q    E  E  Q    E  E   
------------------------|-------------------------|------------------------|
------------------------|-------------------------|------------------------|
--3-------3--3-------3--|-----3-----3--3-------5--|--2-------2--2-------2--|
------------------------|-------------------5-----|------------------------|


  E  E  E  E  Q    E  E     Q    E  E  Q    E  E     E  E  E  E  Q    E  E   
-------------------------|------------------------|-------------------------|
-------------------------|------------------------|-------------------------|
-----2-----2--2----0--2--|--3-------3--3-------3--|-----3-----3--3----5--7--|
-------------------------|------------------------|-------------------------|


  Q    E  E  Q    E  E     E  E  E  E  E  E  E  E     Q    E  E  Q    E  E   
------------------------|--------------------------|------------------------|
------------------------|--------------------------|------------------------|
------------------------|--------------------2-----|--3-------3--3-------3--|
--0-------0--0-------0--|-----0-----0--2--0-----2--|------------------------|


  E  E  E  E  Q    E  E     Q    E  E  E  E  E  E     E  E  E  E  E  E  E  E   
-------------------------|-------------------------|--------------------------|
-------------------------|-------------------------|--------------------------|
-----3-----3--3-------5--|--2-------2--2-----5-----|--------------------------|
-------------------5-----|----------------5-----0--|-----0-----0--0--0--3--0--|


  Q    E  E  Q    E  E     E  Q    E  E  E  E  E     Q    E  E  Q    E  E   
------------------------|-------------------------|------------------------|
------------------------|-------------------------|------------------------|
------------------------|----------------------7--|--5-------5--5-------5--|
--5-------5--5-------5--|-----5----5--5--5--7-----|------------------------|


  E  E  E  E  E  E  E  E     Q    E  E  Q    E  E     E  E  E  E  Q    E  E   
--------------------------|------------------------|-------------------------|
--------------------------|------------------------|-------------------------|
-----5-----5--5-----------|--3-------3--3-------3--|-----3-----3--3-------5--|
-----------------3--5--7--|------------------------|-------------------5-----|


  Q    E  E  Q    E  E     E  E  E  E  Q    E  E     Q    E  E  Q    E  E   
------------------------|-------------------------|------------------------|
------------------------|-------------------------|------------------------|
--2-------2--2-------2--|-----2-----2--2----0--2--|--3-------3--3-------3--|
------------------------|-------------------------|------------------------|


  E  E  E  E  Q    E  E     Q    E  E  Q    E  E     E  E  E  E  E  E  E  E   
-------------------------|------------------------|--------------------------|
-------------------------|------------------------|--------------------------|
-----3-----3--3----5--7--|------------------------|--------------------2-----|
-------------------------|--0-------0--0-------0--|-----0-----0--2--0-----2--|


  Q    E  E  Q    E  E     E  E  E  E  Q    E  E     Q    E  E  E  E  E  E   
------------------------|-------------------------|-------------------------|
------------------------|-------------------------|-------------------------|
--3-------3--3-------3--|-----3-----3--3-------5--|--2-------2--2-----5-----|
------------------------|-------------------5-----|----------------5-----0--|


  E  E  E  E  E  E  E  E     Q    E  E  Q    E  E     E  Q    E  E  E  E  E   
--------------------------|------------------------|-------------------------|
--------------------------|------------------------|-------------------------|
--------------------------|------------------------|----------------------7--|
-----0-----0--0--0--3--0--|--5-------5--5-------5--|-----5----5--5--5--7-----|


  Q    E  E  Q    E  E     E  E  E  E  E  E  Q       Q    Q    E  E  E  E   
------------------------|-------------------------|------------------------|
------------------------|-----7--------5-----4----|------------------------|
--5-------5--5-------5--|--5--------5-----5-------|--3----3----3-----5--3--|
------------------------|-------------------------|---------------3--------|


  E  E  E  E  E  E  E  E     Q    Q    E  E  E  E     E  E  E  E  E  E  E  E   
--------------------------|------------------------|--------------------------|
--------------5--4--------|------------------------|--------------------------|
--L-----5--3--------5--3--|--2----2----2-----0--2--|--L-----------5--3--2-----|
-----3--------------------|---------------2--------|-----2--5--2-----------3--|


  Q    Q    E  E  E  E     E  E  E  E  E  E  E  E     Q    Q    E  E  E  E   
------------------------|--------------------------|------------------------|
------------------------|--------------------------|------------------4--5--|
--0----0----0-----2--0--|--L-----0-----3--2--0-----|---------------5--------|
---------------0--------|-----0-----0-----------2--|--3----3----3-----------|


  E  E  E  E  E  E  E  E     Q    Q    E  E  E  E     E  E  E  E  E  E  E  E   
--------------------------|------------------------|--------------------------|
--L-----4-----7--5--4-----|------------------------|--------------5--4--------|
-----5-----5-----------7--|--3----3----3-----5--3--|--L-----5--3--------5--3--|
--------------------------|---------------3--------|-----3--------------------|


  Q    Q    E  E  E  E     E  Q    E  E  E  E  E     Q    Q    E  E  E  E   
------------------------|-------------------------|------------------------|
------------------0-----|-----2-------2-----0--2--|------------------------|
--2----2----2--0--------|-------------------------|--0----0----0-----2--0--|
---------------------0--|--L-------0-----0--------|---------------0--------|


  E  E  E  E  E  E  E  E     Q    Q    E  E  E  E     E  E  E  E  E  E  E  E   
--------------------------|------------------------|--------------------------|
--------------------------|------------------------|--------------------------|
--L-----------2--0--------|--5----5----5-----7--5--|--L--3--3--2--2--0--0-----|
-----0--3--0--------3--0--|---------------5--------|-----------------------3--|


  Q    E  E  Q    E  E     E  E  E  E  Q    E  E     Q    E  E  Q    E  E   
------------------------|-------------------------|------------------------|
------------------------|-------------------------|------------------------|
--3-------3--3-------3--|-----3-----3--3-------5--|--2-------2--2-------2--|
------------------------|-------------------5-----|------------------------|


  E  E  E  E  Q    E  E     Q    E  E  Q    E  E     E  E  E  E  Q    E  E   
-------------------------|------------------------|-------------------------|
-------------------------|------------------------|-------------------------|
-----2-----2--2----0--2--|--3-------3--3-------3--|-----3-----3--3----5--7--|
-------------------------|------------------------|-------------------------|


  Q    E  E  Q    E  E     E  E  E  E  E  E  E  E     Q    E  E  Q    E  E   
------------------------|--------------------------|------------------------|
------------------------|--------------------------|------------------------|
------------------------|--------------------2-----|--3-------3--3-------3--|
--0-------0--0-------0--|-----0-----0--2--0-----2--|------------------------|


  E  E  E  E  Q    E  E     Q    E  E  E  E  E  E     E  E  E  E  E  E  E  E   
-------------------------|-------------------------|--------------------------|
-------------------------|-------------------------|--------------------------|
-----3-----3--3-------5--|--2-------2--2-----5-----|--------------------------|
-------------------5-----|----------------5-----0--|-----0-----0--0--0--3--0--|


  Q    E  E  Q    E  E     E  Q    E  E  E  E  E     Q    E  E  Q    E  E   
------------------------|-------------------------|------------------------|
------------------------|-------------------------|------------------------|
------------------------|----------------------7--|--5-------5--5-------5--|
--5-------5--5-------5--|-----5----5--5--5--7-----|------------------------|


  E  E  E  E  E  E  Q       Q    Q    E  E  E  E     E  E  E  E  E  E  E  E   
-------------------------|------------------------|--------------------------|
-----7--------5-----4----|------------------------|--------------5--4--------|
--5--------5-----5-------|--3----3----3-----5--3--|--L-----5--3--------5--3--|
-------------------------|---------------3--------|-----3--------------------|


  Q    Q    E  E  E  E     E  E  E  E  E  E  E  E     Q    Q    E  E  E  E   
------------------------|--------------------------|------------------------|
------------------------|--------------------------|------------------------|
--2----2----2-----0--2--|--L-----------5--3--2-----|--0----0----0-----2--0--|
---------------2--------|-----2--5--2-----------3--|---------------0--------|


  E  E  E  E  E  E  E  E     Q    Q    E  E  E  E     E  E  E  E  E  E  E  E   
--------------------------|------------------------|--------------------------|
--------------------------|------------------4--5--|--L-----4-----7--5--4-----|
--L-----0-----3--2--0-----|---------------5--------|-----5-----5-----------7--|
-----0-----0-----------2--|--3----3----3-----------|--------------------------|


  Q    Q    E  E  E  E     E  E  E  E  E  E  E  E     Q    Q    E  E  E  E   
------------------------|--------------------------|------------------------|
------------------------|--------------5--4--------|------------------0-----|
--3----3----3-----5--3--|--L-----5--3--------5--3--|--2----2----2--0--------|
---------------3--------|-----3--------------------|---------------------0--|


  E  Q    E  E  E  E  E     Q    Q    E  E  E  E     E  E  E  E  E  E  E  E   
-------------------------|------------------------|--------------------------|
-----2-------2-----0--2--|------------------------|--------------------------|
-------------------------|--0----0----0-----2--0--|--L-----------2--0--------|
--L-------0-----0--------|---------------0--------|-----0--3--0--------3--0--|


  Q    Q    E  E  E  E     E  E  E  E  Q    Q       Q    E   E  Q    Q     
------------------------|------------------------|--8---------------------|
------------------------|------------------------|------------------------|
--5----5----5-----7--5--|--L--5-----5--5---------|----------/6--6---------|
---------------5--------|------------------------|------------------------|


   S   S  E  E  E  Q    Q       Q.     E  Q    Q     
--10h-12-10--8--7------------|----------------------|
-------------------8---------|---------7--7---------|
------------------------6----|--5-------------------|
-----------------------------|----------------------|


  S  E  E.  S  S  E  E  E  E     Q.     Q    E  E  E     Q.     Q    E  E  E   
--5h-7--5---3h-5p-3--2--------|---------5-------------|---------7-------------|
------------------------3--0--|-----------------------|-----------------------|
------------------------------|--3--------------3-----|--5--------------5-----|
------------------------------|--------------3-----3--|--------------5-----5--|


  Q.     Q    E  E  E     E  E  E  E  E  E  E  E     Q    Q    E  E   E  E   
---------8-------------|--------------------------|-------------------------|
-----------------------|--------------------------|-------------------------|
--6--------------6-----|--8--8--8--8--8--8--8--8--|--9----9----9-----11--9--|
--------------6-----6--|--------------------------|---------------9---------|


  E  E  E  E   E   E  E  E     Q    Q    E  E   E  E   
----------------------------|-------------------------|
--------------11--10--------|-------------------------|
--L-----9-------------------|--8----8----8---------8--|
-----9-----9----------7--9--|---------------8--11-----|


  E  E   E  E  E  E   E  E     Q    Q    E  E   E  E   
----------------------------|-------------------------|
----------------------------|-------------------------|
--L------------9--8---------|--9----9----9-----11--9--|
-----8--11--8--------11--8--|---------------9---------|


  E  E  E  E   E   E  E  E     Q    Q    E  E   E  E   
----------------------------|-------------------------|
--------------11--10--------|-------------------------|
--L-----9-------------------|--8----8----8---------8--|
-----9-----9----------7--9--|---------------8--11-----|


  E  E   E  E  E  E   E  E     Q    Q    E  E  E  E   
----------------------------|------------------------|
----------------------------|------------------------|
--L------------9--8---------|------------------------|
-----8--11--8--------11--8--|--5----5----5--0--7--5--|


  E  E  E  E  E  E  E  E     Q    Q    E  E  E  E     E  E  E  E  E  E  E  E   
--------------------------|------------------------|--------------------------|
--------------------------|------------------------|--------------------------|
--------0-----2--0--------|------------------------|--------------2-----------|
--L--0-----0--------0--2--|--4----4----4--0--5--4--|--L--0--2--0-----0--2--4--|


  E  E  E  E  Q    E  E     E  E  Q    E  E  Q       E  E  E  E  Q    E  E   
-------------------------|------------------------|-------------------------|
-------------------------|------------------------|-------------------------|
-------------------------|------------------------|-------------------------|
--2--2--2--2--2----4--4--|--4--4--4----4-----4----|--5--5--5--5--5----7-----|


        Q    Q    E  E  E  E     E  E  E  E  E  E  E  E   
-----|------------------------|--------------------------|
-----|------------------------|--------------5--4--------|
-----|--3----3----3-----5--3--|--L-----5--3--------5--3--|
-----|---------------3--------|-----3--------------------|


  Q    Q    E  E  E  E     E  E  E  E  E  E  E  E     Q    Q    E  E  E  E   
------------------------|--------------------------|------------------------|
------------------------|--------------------------|------------------------|
--2----2----2-----0--2--|--L-----------5--3--2-----|--0----0----0-----2--0--|
---------------2--------|-----2--5--2-----------3--|---------------0--------|


  E  E  E  E  E  E  E  E     Q    Q    E  E  E  E     E  E  E  E  E  E  E  E   
--------------------------|------------------------|--------------------------|
--------------------------|------------------4--5--|--L-----4-----7--5--4-----|
--L-----0-----3--2--0-----|---------------5--------|-----5-----5-----------7--|
-----0-----0-----------2--|--3----3----3-----------|--------------------------|


  Q    Q    E  E  E  E     E  E  E  E  E  E  E  E     Q    Q    E  E  E  E   
------------------------|--------------------------|------------------------|
------------------------|--------------5--4--------|------------------0-----|
--3----3----3-----5--3--|--L-----5--3--------5--3--|--2----2----2--0--------|
---------------3--------|-----3--------------------|---------------------0--|


  E  Q    E  E  E  E  E     Q    Q    E  E  E  E     E  E  E  E  E  E  E  E   
-------------------------|------------------------|--------------------------|
-----2-------2-----0--2--|------------------------|--------------------------|
-------------------------|--0----0----0-----2--0--|--L-----------2--0--------|
--L-------0-----0--------|---------------0--------|-----0--3--0--------3--0--|


  Q    Q    E  E  E  E     Q    Q    E  E  Q       Q    Q    E  E  E  E   
------------------------|-----------------------|------------------------|
------------------------|-----------------------|------------------------|
--5----5----5-----7--5--|--L----5----5--5--5----|--3----3----3-----5--3--|
---------------5--------|-----------------------|---------------3--------|


  E  E  E  E  E  E  E  E     Q    Q    E  E  E  E     E  E  E  E  E  E  E  E   
--------------------------|------------------------|--------------------------|
--------------5--4--------|------------------------|--------------------------|
--L-----5--3--------5--3--|--2----2----2-----0--2--|--L-----------5--3--2-----|
-----3--------------------|---------------2--------|-----2--5--2-----------3--|


  Q    Q    E  E  E  E     E  E  E  E  E  E  E  E     Q    Q    E  E  E  E   
------------------------|--------------------------|------------------------|
------------------------|--------------------------|------------------4--5--|
--0----0----0-----2--0--|--L-----0-----3--2--0-----|---------------5--------|
---------------0--------|-----0-----0-----------2--|--3----3----3-----------|


  E  E  E  E  E  E  E  E     Q    Q    E  E  E  E     E  E  E  E  E  E  E  E   
--------------------------|------------------------|--------------------------|
--L-----4-----7--5--4-----|------------------------|--------------5--4--------|
-----5-----5-----------7--|--3----3----3-----5--3--|--L-----5--3--------5--3--|
--------------------------|---------------3--------|-----3--------------------|


  Q    Q    E  E  E  E     E  Q    E  E  E  E  E     Q    Q    E  E  E  E   
------------------------|-------------------------|------------------------|
------------------0-----|-----2-------2-----0--2--|------------------------|
--2----2----2--0--------|-------------------------|--0----0----0-----2--0--|
---------------------0--|--L-------0-----0--------|---------------0--------|


  E  E  E  E  E  E  E  E     Q    Q    E  E  E  E     E  Q    E  H         
--------------------------|------------------------|----------------------|
--------------------------|------------------------|----------------------|
--L-----------2--0--------|--5----5----5-----7--5--|--L--5----5--5--------|
-----0--3--0--------3--0--|---------------5--------|----------------------|


  W                   W                  
-------------------|-------------------||
-------------------|-------------------||
--L----------------|-------------------||
-------------------|-------------------||




Duration Legend
---------------
W - whole
H - half
Q - quarter
E - 8th
S - 16th
T - 32nd
X - 64th
. - note dotted
|-n-|  - n-tuplets


Tablature Legend
----------------
L - tied note
x - dead note
g - grace note
(n) - ghost note
> - accentuded note
NH - natural harmonic
AH - artificial harmonic
TH - tapped harmonic
SH - semi harmonic
PH - pitch harmonic
h - hammer on
p - pull off
b - bend
br - bendRelease
pb - preBend
pbr - preBendRelease
brb - bendReleaseBend
\n/ - tremolo bar dip
\n - tremolo bar dive
-/n - tremolo bar Release up
/n\ - tremolo bar inverted dip
/n - tremolo bar return
-\n - tremolo bar Release down
S - shift slide
s - legato slide
/ -  slide into from below or out of upwards
\ -  slide into from above or out of downwards
~ - vibrato
W - wide vibrato
tr - trill
TP - tremolo picking
T - tapping
S - slap
P - pop
< - fade in
^ - brush up
v - brush down





Comments


Popular J-rocks tabs & chords
Ceria Chord Chords
Falling In Love 1 Chords
Kau Curi Lagi Feat Prisa Chords
Lepaskan Diriku Tabs
Lepaskan Diriku 1 Tabs
Lepaskan Diriku 3 Tabs
Meraih Mimpi Tabs
Meraih Mimpi 1 Tabs
Berharap Kau Kembali Ukulele
Spirit Ukulele


Song lyrics



↑ Back to top | Tablatures and chords are parodies/interpretations of the original songs. You may use it for private study, scholarship, research or language learning purposes only
© 2014 AZChords.com Contact us | Privacy policy | DMCA | Add/correct tabs | Request tabs | Top 50 tabs