» » »

J-rocks, Hanya Aku Tabs (ver.2)

Artists:  A B C D E F G H I J K L M N O P Q R S T U V W X Y Z # 

Hanya Aku Tabs (ver.2)

J-rocks Tabs
Rating:
0/5 (0 votes)
Hard to play? Try these video lessons and learn fast.
                Hanya aku (intro akhir)


   Am                G#m          Gm                      F#m
E|-----------------|------------|------------------------|---------------|
B|-----------------|------------|------------------------|---------------|
G|-----------9-----|----------9-|-------------7h9-9-7-5--|-7h9-9-7-5-7---|
D|--7-7-9-10---7---|-6--6-7-9---|-5--5-7-7h9-------------|---------------|
A|-----------------|------------|------------------------|---------------|
E|-----------------|------------|------------------------|---------------|

   Fm                         Em            
E|--------------------------|--------------|
B|-15-17b-17b-17b-17-15-13--|-12--15-13-12-|
G|--------------------------|--------------|
D|--------------------------|--------------|
A|--------------------------|--------------|
E|--------------------------|--------------|


   Dm                                             E
E|--13-13-10-10----------------------------------|-----|I
B|--------------12-12-9-9------------------------|-----|I
G|------------------------10-10-7-7--------------|-----|I
D|----------------------------------9-9-6-6------|-----|I
A|------------------------------------------7h8--|-7---|I
E|-----------------------------------------------|-----|I
            

comments powered by Disqus
↑ Back to top | J-rocks Tabs for Hanya Aku. Lyrics for acoustic guitar and electric guitar. Tablatures and chords are parodies/interpretations of the original songs. You may use it for private study, scholarship, research or language learning purposes only