>
 >
Falling In Love

Falling In Love Bass Tabs

J-rocks - Falling In Love chords, tabs, tablatures, lyrics

Guitar lessons | Add/correct | Request | Top 50 tabs Artists:  A B C D E F G H I J K L M N O P Q R S T U V W X Y Z 0-9

Falling In Love Bass Tabs – J-rocks

CD, Sheet music, Poster

Do you like Falling In Love? Share with your friends now
Bass TabsChordsChords v2Ukulele
Bass Tab By J-rock
Turning : G,D,A,E

Intro


                   Q        E  E  E  E  E  E  E  E    
G||----------------------|---------------------------|
D||----------------------|-----------------------0s--|
A||---------------17s----|--5--5--5--5--5--5--5------|
E||----------------------|---------------------------|


   E   E   E    Q     E   E   E      E   E   E   E   E   E   E   E   
---------------------------------|----------------------------------|
--12--12------/14----12--12s--0--|----------------------------------|
----------12---------------------|--10--10--10--10--10--10--10--10--|
---------------------------------|----------------------------------|


   E   E    E   Q    Q.          E  E  E  E  E  E   E  E    
-----------------------------|-----------------------------|
-----------------------------|-------------------------7s--|
--10------/12--10----9\------|--/2--2--2--2--2--4s--5------|
------10---------------------|-----------------------------|


  E  E  E  E  E  E   E  E      E  E  E  E  E  E   E  E    
----------------------------|------------------------4s--|
--4--4--4--4--4--2s--4--5s--|--2--2--2--2--2--4s--5------|
----------------------------|----------------------------|
----------------------------|----------------------------|


  E  E  E  E  E  E   E  E
--2--2--2--2--2--4s--6--2--|
---------------------------|
---------------------------|
---------------------------|

Verse

  E  E  E  E  E  E  E   E   
---------------------------|
---------------------------|
--5--5--5--5--5-----5s--7--|
-----------------5---------|


  E  E  E  E  E  E  E  E     E  E  E  E   E  E  E  E   
--------------------------|---------------------------|
--------------------------|---------------------------|
--0--0--0--0--0-----0-----|--2--2--2--4s--5--2--0--2--|
-----------------2-----2--|---------------------------|


  E  E  E  E  E  E  E  E     E  E  E  E  E  E  E   E   
--------------------------|---------------------------|
--4--4--4--4--4--4--4--4--|--5--5--5--5--5-----7s--5--|
--------------------------|-----------------5---------|
--------------------------|---------------------------|


  E  E  E  E  E  E  E   E     E  E  E  E  E  E   E  E    
---------------------------|------------------------4s--|
--4--4--4--4--4-----5s--4--|--2--2--2--2--2--4s--5------|
-----------------4---------|----------------------------|
---------------------------|----------------------------|


  E  E  E  E  E  E   E   E     E  E  E  E  E  E  E   E   
--2--2--2--2--2--4s--6s--2--|---------------------------|
----------------------------|---------------------------|
----------------------------|--5--5--5--5--5-----5s--7--|
----------------------------|-----------------5---------|


  E  E  E  E  E  E  E  E     E  E  E  E   E  E  E  E   
--------------------------|---------------------------|
--------------------------|---------------------------|
--0--0--0--0--0-----0-----|--2--2--2--4s--5--2--0--2--|
-----------------2-----2--|---------------------------|


  E  E  E  E  E  E  E  E      E  E  E  E  E  E  E  E   
---------------------------|--------------------------|
--4--4--4--4--4--4--4--4s--|--5--5--5--5--5--5--5-----|
---------------------------|-----------------------5--|
---------------------------|--------------------------|


  E  E  E  E  E  E   E  E     E  E  E  E  E  E   Q     
---------------------------|--------------------------|
---------------------------|--------------------------|
---------------------------|--2--2--2--2--2--2\--L----|
--3--3--3--3--3--3s--5--5--|--------------------------|


  E  E  E  E  S S E  E  E     E  E  E  E  E  E  E  E   
---------------------------|--------------------------|
--------2-----0-2-2-----2--|--------------------------|
---------------------------|--------------------------|
--0--0-----0---------0-----|--3--3--3--3--5--5--5--5--|


  E  E  E  E  E  E  E  E  
--------------------------|
--------------------------|
--5--5--5--5--5--5--5--5--|
--------------------------|

Pre-Chorus

  Q    E  E  S S E  E  E   
--------------------------|
--------------------------|
--------------------------|
--5----5--0--5-5-5--0--5--|


  Q    E  S S E  E  E  E     E  E  E  E  E  E  E  E   
--------------------------|--------------------------|
--------------------------|--------------------0--2--|
--------------------------|-----------------2--------|
--7----7--7-7-7--7--7--5--|--3--3--3--3--3-----------|


  Q    S S E   E   E  S S E     Q    E  E  S S E  E  E   
-----------------------------|--------------------------|
--0----0-0-4s--5s--4--2-2----|--------------------------|
--------------------------0--|--------------------------|
-----------------------------|--5----5--0--5-5-5--0--5--|


  E  E  E  S  Q    E  S  E     E  E  E  E  E  E  E  E    
----------------------------|---------------------------|
-----------5s-9----7--------|---------------------------|
--2--4--5-------------7s-5--|-----------------------3s--|
----------------------------|--3--3--3--3--3--3--3------|


   E   E   E   E   E   E   E   E  
----------------------------------|
----------------------------------|
--10--10--10--10--10--10--10--10--|
----------------------------------|

Chorus

  E  E  E  S S E  E  E  E   
---------------------------|
--------0--2-0-2-----2-----|
--2--2---------------------|
------------------0-----0--|


  E  E  E  S S E  E  E  E     E  E  E  S S E  E  E  E   
---------------------------|---------------------------|
-----------0-2-0--0--------|--------0--2-3-2-----2-----|
--------2------------4--0--|--2--2---------------------|
--3--3---------------------|------------------0-----0--|


  E  E  E  S S E  E  E  E     E  E  E  S S E  E  E  E   
---------------------------|---------------------------|
-----------0-2-0--0--------|--------0--2-2-2-----2-----|
--------2------------4--0--|--2--2---------------------|
--3--3---------------------|------------------0-----0--|


  E  E  E  S S E  E  E  E     E  E  E  E  S S E  E  E   
---------------------------|---------------------------|
-----------0-2-0--0--------|--------2-----0-2-2-----2--|
--------2------------4--0--|---------------------------|
--3--3---------------------|--0--0-----0---------0-----|


  S S E  E  E  S S E  E  E   
----------------------------|
---------2-----0-2-2-----2--|
----------------------------|
--0-0-0-----0---------0-----|


Bridge

  W                    W                 
--------------------|-------------------|
--------------------|-------------------|
--5~----------------|--L----------------|
--------------------|-------------------|

Verse

  E  E  E  E  E  E  E   E   
---------------------------|
---------------------------|
--5--5--5--5--5-----5s--7--|
-----------------5---------|


  E  E  E  E  E  E  E  E     E  E  E  E   E  E  E  E   
--------------------------|---------------------------|
--------------------------|---------------------------|
--0--0--0--0--0-----0-----|--2--2--2--4s--5--2--0--2--|
-----------------2-----2--|---------------------------|


  E  E  E  E  E  E  E  E      E  E  E  E  E  E  E  E   
---------------------------|--------------------------|
--4--4--4--4--4--4--4--4s--|--5--5--5--5--5--5--5-----|
---------------------------|-----------------------5--|
---------------------------|--------------------------|


  E  E  E  E  E  E   E  E     E  E  E  E  E  E   Q     
---------------------------|--------------------------|
---------------------------|--------------------------|
---------------------------|--2--2--2--2--2--2\--L----|
--3--3--3--3--3--3s--5--5--|--------------------------|


  E  E  E  E  S S E  E  E     E  E  E  E  E  E  E  E   
---------------------------|--------------------------|
--------2-----0-2-2-----2--|--------------------------|
---------------------------|--------------------------|
--0--0-----0---------0-----|--3--3--3--3--5--5--5--5--|


  E  E  E  E  E  S S E  E      E  Q    Q    Q.        E  E  E  E  E  E  E  E   
----------------------------|----------------------|--------------------------|
----------------------------|----------------------|--------------------------|
--5--5--5--5--5------5--5s--|--7--5----4----0------|-----------------------5--|
-----------------x-5--------|----------------------|--3--3--3--3--3--3--3-----|


  S S E  E  E  E  S S Q       E  E  E  E  E  E  E  E   
---------------------------|--------------------------|
--4-5-4--L-----4--5-4-L----|--------------------------|
------------5---------0----|--5--5--5--5--5--5--5--5--|
---------------------------|--------------------------|


  E  E  E   Q    E  E  E     E  E  E  E  E  E  E  E   
--------------------------|--------------------------|
--------------------------|--------------------------|
--5--5-----/7----5--4--0--|--------------------------|
--------5-----------------|--3--3--3--3--3--3--3--3--|


  E  E  E   E  E  S S E  E  
----------------------------|
--------7s--5--4--5-4-2--0--|
-----5----------------------|
--3-------------------------|

Pre-Chorus

  Q    E  E  S S E  E  E   
--------------------------|
--------------------------|
--------------------------|
--5----5--0--5-5-5--0--5--|


  Q    E  S S E  E  E  E     E  E  E  E  E  E  E  E   
--------------------------|--------------------------|
--------------------------|--------------------0--2--|
--------------------------|-----------------2--------|
--7----7--7-7-7--7--7--5--|--3--3--3--3--3-----------|


  Q    S S E   E   E  S S E     Q    E  E  S S E  E  E   
-----------------------------|--------------------------|
--0----0-0-4s--5s--4--2-2----|--------------------------|
--------------------------0--|--------------------------|
-----------------------------|--5----5--0--5-5-5--0--5--|


  E  E  E  S  Q    E  S  E     E  E  E  E  E  E  E  E    
----------------------------|---------------------------|
-----------5s-9----7--------|---------------------------|
--2--4--5-------------7s-5--|-----------------------3s--|
----------------------------|--3--3--3--3--3--3--3------|


   E   E   E   E   E   E   E   E  
----------------------------------|
----------------------------------|
--10--10--10--10--10--10--10--10--|
----------------------------------|

Chorus

  E  E  E  S S E  E  E  E   
---------------------------|
--------0--2-0-2-----2-----|
--2--2---------------------|
------------------0-----0--|


  E  E  E  S S E  E  E  E     E  E  E  S S E  E  E  E   
---------------------------|---------------------------|
-----------0-2-0--0--------|--------0--2-3-2-----2-----|
--------2------------4--0--|--2--2---------------------|
--3--3---------------------|------------------0-----0--|


  E  E  E  S S E  E  E  E     E  E  E  S S E  E  E  E   
---------------------------|---------------------------|
-----------0-2-0--0--------|--------0--2-2-2-----2-----|
--------2------------4--0--|--2--2---------------------|
--3--3---------------------|------------------0-----0--|


  E  E  E  S S E  E  E  E     E  E  E  E  S S E  E  E   
---------------------------|---------------------------|
-----------0-2-0--0--------|--------2-----0-2-2-----2--|
--------2------------4--0--|---------------------------|
--3--3---------------------|--0--0-----0---------0-----|


  S S E  E  E  S S E  E  E  
----------------------------|
---------2-----0-2-2-----2--|
----------------------------|
--0-0-0-----0---------0-----|

Chorus

  E  E  E  S S E  E  E  E   
---------------------------|
--------0--2-0-2-----2-----|
--2--2---------------------|
------------------0-----0--|

  E  E  E  S S E  E  E  E     E  E  E  S S E  E  E  E   
---------------------------|---------------------------|
-----------0-2-0--0--------|--------0--2-3-2-----2-----|
--------2------------4--0--|--2--2---------------------|
--3--3---------------------|------------------0-----0--|


  E  E  E  S S E  E  E  E     E  E  E  S S E  E  E  E   
---------------------------|---------------------------|
-----------0-2-0--0--------|--------0--2-2-2-----2-----|
--------2------------4--0--|--2--2---------------------|
--3--3---------------------|------------------0-----0--|


  E  E  E  S S E  E  E  E     E  E  E  E  S S E  E  E   
---------------------------|---------------------------|
-----------0-2-0--0--------|--------2-----0-2-2-----2--|
--------2------------4--0--|---------------------------|
--3--3---------------------|--0--0-----0---------0-----|


  S S E  E  E  S S E  E  E     W                    W                 
----------------------------|--------------------|-------------------|
---------2-----0-2-2-----2--|--------------------|-------------------|
----------------------------|--5~----------------|--L----------------|
--0-0-0-----0---------0-----|--------------------|-------------------|

Outro

    W                   H         S  S  E   Q        W                 
---------------------|-----------11-12-11---------|-------------------|
--/12----------------|---------------------12s----|--0----------------|
---------------------|----------------------------|-------------------|
---------------------|----------------------------|-------------------|


Duration Legend
---------------
W - whole
H - half
Q - quarter
E - 8th
S - 16th
T - 32nd
X - 64th
. - note dotted
|-n-|  - n-tuplets


Tablature Legend
----------------
L - tied note
x - dead note
g - grace note
(n) - ghost note
> - accentuded note
NH - natural harmonic
AH - artificial harmonic
TH - tapped harmonic
SH - semi harmonic
PH - pitch harmonic
h - hammer on
p - pull off
b - bend
br - bendRelease
pb - preBend
pbr - preBendRelease
brb - bendReleaseBend
\n/ - tremolo bar dip
\n - tremolo bar dive
-/n - tremolo bar Release up
/n\ - tremolo bar inverted dip
/n - tremolo bar return
-\n - tremolo bar Release down
S - shift slide
s - legato slide
/ -  slide into from below or out of upwards
\ -  slide into from above or out of downwards
~ - vibrato
W - wide vibrato
tr - trill
TP - tremolo picking
T - tapping
S - slap
P - pop
< - fade in
^ - brush up
v - brush down





Comments


Popular J-rocks tabs & chords
Lepaskan Diriku Bass Tabs
Berharap Kau Kembali Chords
Falling In Love Chords
Pdkt Chords
Pdkt 1 Chords
Serba Salah Chords
Cobalah Kau Mengerti Intro Tabs
Fallin In Love Intro Tabs
Lepaskan Diriku 1 Tabs
Meraih Mimpi Tabs


Song lyrics



↑ Back to top | Tablatures and chords are parodies/interpretations of the original songs. You may use it for private study, scholarship, research or language learning purposes only
© 2014 AZChords.com Contact us | Privacy policy | DMCA | Add/correct tabs | Request tabs | Top 50 tabs