>
 >
What I Needed

What I Needed Guitar Tabs

Journey - What I Needed chords, tabs, tablatures, lyrics

Guitar lessons | Add/correct | Request | Top 50 tabs Artists:  A B C D E F G H I J K L M N O P Q R S T U V W X Y Z 0-9

What I Needed Guitar Tabs – Journey

CD, Sheet music, Poster

Do you like What I Needed? Share with your friends now
Tabs
Journey-What I Needed

intro:

-----------------------------------------------|
--------7---------10----------10-8--7----------|
--6-7-6-----6-7-6-----------7----------9-6-----|
--------------------------9--------------------|
-----------------------------------------------|
-----------------------------------------------|

-----------------------------------------------|
--------7---------10---------10-8--7-----------|
--6-7-6-----6-7-6----------7------------9-6----|
-------------------------9---------------------|
-----------------------9-----------------------|
-----------------------------------------------|

Verse 1:

Bm                 G
-------2-----------------3-----|
-------3-----------------3-----|
-----4-------------------0-----|
---4-------------------0-------|
-2-------------------2---------|
-------------------3-----------|

Missing something in my life


Bm               G
------------------------------|
-------3---------------3------|
-----4-----------------0------|
---4-----------------0--------|
-2-----------------2----------|
-----------------3------------|

Searching for it day and night


Emadd9          Bsus2
-------2------------------|
-------0---------------2--|
-------0-------------4----|
-----2-------------4------|
---2-------------2--------|
-0------------------------|

Couldn't seem to get it right


         G               G           A
-----------------------------------------------|
---------------3---------------3------------2--|
---------------0-------------0------------2----|
-------------0-------------0------------2------|
-----------2--------------------------0--------|
---------3---------------3---------------------|

'Til you walked my way


Verse 2:
(Repeat chords from verse 1)

Bm             G
Leaving lovers one by one

Bm              G
Didn't like who I'd become

Emadd9                  Bsus2
Couldn't face myself, I turn and run

G                   G           A
Made me see that I could change


Pre-chorus:


Dm              F
-------1p0---------------0-------------|
-----3-----3----------------3----------|
---2---------2--------2-------2--------|
-0------------------0-----------0------|
---------------------------------------|
----------------1----------------------|
     Out of my darkness

     G
------------3----------------3---------|
---------------3----------------3------|
---------0-------0---------0------0----|
-------0-----------0-----0----------0--|
---------------------------------------|
-----3-----------------3---------------|
As I step into the light

Dm              F
-------1p0---------------0----------------|
-----3-----3----------------3-------------|
---2---------2--------2-------2-----------|
-0------------------0-----------0---------|
------------------------------------------|
----------------1-------------------------|
     We get a new day

     G
-------3--------------|
-------3--------------|
-------0--------------|
-------0--------------|
-------2--------------|
-------3--------------|
Taking one step at a time


----------------------|
----------------------|
----------------------|
----------------------|
----------------------|
-----8-7-6-5-3-2*-----|


Chorus:

Bm              Gmaj7
-------0--------------0--------|
----------3--------------3-----|
-----4------4-------4------4---|
---4--------------4------------|
-2-----------------------------|
----------------3--------------|
       You were  what I needed


Em9               Bbdim7
---------------------------0------------|
-------------------------2---2----------|
---------0-------------0----------------|
-------4----4--------2-----------4-2----|
-----2--------2---1---------------------|
-0-0------------------------------------|
     I was  falling


Bm              Gmaj7
-----------------------5-3------------|
-------2--3----------------0----------|
-----4------4--------4----------------|
---4--------------4-------------------|
-2------------------------------------|
----------------3---------------------|
       Hiding     my emotion


Em9                 F#
--------2-2p0----------------------------|
--------------0---------------0----------|
----------------------------3---3--------|
------4-------------------4---------4-2--|
----2-------------------4----------------|
-0-------------------2-------------------|
You made me see the truth


Bm              Gmaj7
-------0--------------0----------|
----------3--------------3-------|
-----4------4-------4------4-----|
---4--------------4--------------|
-2-------------------------------|
----------------3----------------|
       Your love was what I needed


Em9               Bbdim7
---------------------------0------------|
-------------------------2---2----------|
---------0-------------0----------------|
-------4----4--------2-----------4-2----|
-----2--------2---1---------------------|
-0-0------------------------------------|
     Hear me calling


Bm              Gmaj7
-----------------------5-3------------|
-------2--3----------------0----------|
-----4------4--------4----------------|
---4--------------4-------------------|
-2------------------------------------|
----------------3---------------------|
       Waiting    for a lifetime


Em9                 F#
---------2-2p0--------------|
---------------0------------|
----------------------------|
------4---------------------|
----2-----------------------|
-0-------------------2------|
Girl, you were my rescue


All I needed was you

-----------------------------------------------|
--------7---------10-----------10-8--7---------|
--6-7-6-----6-7-6------------7----------9-6----|
---------------------------9-------------------|
-------------------------9---------------------|
-----------------------------------------------|

Repeat chords from verse:

I used to always get my way
Told me that you wouldn't stay
Had to face it, what you had to say
If I wanted you
You tell me when I did you wrong
I guess I've known it all along
Cared enough and you stood strong
I believed in you

Repeat chords from pre-chorus:

In my frustrations
Tried to become someone else
The years I've wasted
I'd been lying to myself

----------------------|
----------------------|
----------------------|
----------------------|
----------------------|
---8-7-6-5-3-2*-------|

Repeat chords from chorus:

You were what I needed
I was falling
Hiding my emotion
You made me see the truth
Your love was what I needed
Hear me calling
Waiting for a lifetime
Hear me calling
What I needed

Solo: Use B-minor scale to solo (Chords:  G-D-F#-Bm  x2)

------------------------------------------------|
--10b-------------------------------------------|
------------------------------------------------|
------------------------------------------------|
------------------------------------------------|
------------------------------------------------|
What I needed was you

   G                D                     F#
----------------------------------------------------|
---10b----10b--10p7---------------------------------|
--------------------9b-9b------9b--9p7----9*---9b-9-|
----------------------------------------------------|
----------------------------------------------------|
----------------------------------------------------|

                                   Bm
-------------------------------------------------|
-------------------------------------------------|
-7h9---7-----------------------------------------|
-----9---9-7h9p7---7-----------------------------|
-----------------9---9-7h9b7---------------------|
------------------------------10--7-7------------|



-------------------------7-10b-7-----7/19---------|
--------------------7-10---------10b--------------|
----------------7-9-------------------------------|
------------7-9-----------------------------------|
--------7-9---------------------------------------|
-7-9-10-------------------------------------------|


 G                                        D

-19-22p19h22p19h22p19h22p19-------------------------------------------|
--------------------------------22b-22p19-----------------------------|
------------------------------------------21b--21b------21p19--21b----|
----------------------------------------------------------------------|
----------------------------------------------------------------------|
----------------------------------------------------------------------|

           F#
------------------19------------------------------------------------------------------|
-----22--------19----22-19h22p19------------------------------------------------------|
-21b-------21b--------------------21-19---21b-21----19----19-----------19-21-21bb-----|
----------------------------------------21-------------21----21--19-21----------------|
--------------------------------------------------------------------------------------|
--------------------------------------------------------------------------------------|

-------------------------------------------------|
-------------------------------------------------|
-19h21p19----19----------------------------------|
----------21----21-19h21p19----19----------------|
----------------------------21----21-19----------|
-------------------------------------------------|


  Bm
--------------------------------14-17/22--22-21-22b---21-19----------|
-----------------------14-15-17--------------------------------------|
-----------------14-16-----------------------------------------------|
-----------14-16-----------------------------------------------------|
--14-16-17-----------------------------------------------------------|
---------------------------------------------------------------------|





   Em          D          Bm
In you I found shelter

        Em              D      c
How you believed in me, stood strong

         F                B
You were there through my darkest hour



E             C      D
You lifted my spirit up

                G
Brought out the best in me

D   C              Am              Dsus4    D
And now I'll stand before you with all   my love

------------------------|
------------------------|
------------------------|
--5-2-------------------|
------4-1---------------|
----------8-7-6-5-3-2*--|

Repeat chords from chorus:

You were what I needed
I was falling
Hiding my emotion
But you made me see the truth
Your love was what I needed
Hear me calling
Waiting for a lifetime
Girl you were my rescue
What I needed was you

outro:

------------------------------------------------|
--------7---------10----------10-8--7-----------|
--6-7-6-----6-7-6-----------7----------9-6------|
--------------------------9---------------------|
------------------------------------------------|
------------------------------------------------|

--------------------------------------------------|
--------7---------10---------10-8--7--------------|
--6-7-6-----6-7-6----------7------------9-6-------|
-------------------------9------------------------|
-----------------------9--------------------------|
--------------------------------------------------|





Comments


Popular Journey tabs & chords
Lights 1 Bass Tabs
Stay Awhile Bass Tabs
Stone In Love 2 Bass Tabs
Be Good To Yourself Chords
Easy To Fall Chords
Open Arms 3 Chords
Still They Ride Chords
Lovely Woman Ukulele
Resonate Ukulele
Still They Ride Ukulele


Song lyrics



↑ Back to top | Tablatures and chords are parodies/interpretations of the original songs. You may use it for private study, scholarship, research or language learning purposes only
© 2014 AZChords.com Contact us | Privacy policy | DMCA | Add/correct tabs | Request tabs | Top 50 tabs