» » »

To Be Alive Again Tabs (ver.1)

Artists:  A B C D E F G H I J K L M N O P Q R S T U V W X Y Z # 

To Be Alive Again Tabs (ver.1)

Journey
Rating:
0/5 (0 votes)

Hard to play? Try these video lessons and learn fast.
                JOURNEY – To Be Alive Again

Intro/Main riff:
e--------------------|--------------------|
B--------------------|--------------------|
G------------5-------|---------2----------|
D-5----2--5--5-------|-5----5--2--2-------|
A-5----2--5--3-------|-5----5--0--2-------|
E-3----0--3----------|-3----3--0--0-------|

e--------------------|-------------------|
B--------------------|-------------------|
G------------5-------|-2---------5-------|
D-5----2--5--5-----5-|-2------5--5-------|
A-5----2--5--3-----5-|-0------5--3-------|
E-3----0--3--------3-|--------3----------|

Verse 1 (w/Main riff):
Doin' time where it takes you 
You know it's time that can break you 
We get caught in my moment 
Just sleepwalkin' most of our lives

Verse 2:
e------------------------------|------------------------------|
B------------------------------|------------------------------|
G------------5-----------------|---------2--------------------|
D-5----2--5--5-----------------|-5----5--2--2-----------------|
A-5----2--5--3---3-3-3-3-3-3-3-|-5----5--0--2-----------------|
E-3----0--3--------------------|-3----3--0--0---0-0-0-0-0-0-0-|
In your mind when you need it 
With a song to help you believe it

e----------------------------|-------------------|
B----------------------------|-------------------|
G------------5---------------|-2---------5-------|
D-5----2--5--5-------------5-|-2------5--5-------|
A-5----2--5--3---3-3-3-3-3-5-|-0------5--3-------|
E-3----0--3----------------3-|--------3----------|
You can reinvent your world anytime you like  

Chorus:
       G
To be alive again 
Am             C
Wakin' up from where you been 
D                Em
Younger now than you were then 
       C              D
You're comin' 'round again 
         G        
Do you remember when 
Am               C
Life was so much simpler then 
     D                  Em
Like summer nights that never end 
   C
To be alive again

Main riff

Verse 3 (w/Main riff):
Find the smile you've been missin' 
There's someone that you could be kissin' 
So open your eyes and see 
What's been there all along 

Verse 4 (w/Verse 2 riff):
Letting go of your feelings 
With doubt and fear you don't need it 
Break the chains on the heart of a soul 
That's been waiting so long 

Chorus

Break:
e------------------------------|
B------------------------------|
G------------5-----------------|
D-5----2--5--5-----------------|
A-5----2--5--3---3-3-3-3-2-0---|
E-3----0--3------------------3-|

Bridge:
F                              Am              Em
  You're not among the walkin' wounded anymore 
          F
There's a time to fall 
          G
There's a time to rise above it all 

Solo chords:
Am, Em, D
Am, Em, G
Am, C, D

Chorus

Outro chords:
G, Am, C, D
Em, C, D
G, C, D
Em, C, D
G, Am, C, D
Em, C, D
            
Hard to play? Try these video lessons and learn fast. | Correct




comments powered by Disqus
↑ Back to top | Tablatures and chords are parodies/interpretations of the original songs. You may use it for private study, scholarship, research or language learning purposes only