>
 >
The Partys Over 1

The Partys Over 1 Guitar Tabs

Journey - The Partys Over 1 chords, tabs, tablatures, lyrics

Guitar lessons | Add/correct | Request | Top 50 tabs Artists:  A B C D E F G H I J K L M N O P Q R S T U V W X Y Z 0-9

The Partys Over 1 Guitar Tabs – Journey

CD, Sheet music, Poster

Do you like The Partys Over 1? Share with your friends now
Bass TabsTabsTabs v2
-----------------------------------------------------------------------------
         The Party's Over (Hopelessly In Love) - Journey (GUITAR)
                       
-----------------------------------------------------------------------------

Tuning: Standard

=============================================================================

Guitar



     PM PM PM PM PM PM    PM PM PM PM PM PM PM PM  
     S  S  S  S  S  S  E  S  S  S  S  S  S  S  S   
E||-----------------------------------------------|
B||-----------------------------------------------|
G||--7--4-----5--4-----4-----4--5--7--5--4-----7--|
D||--------5--------7-----7-----------------5-----|
A||-----------------------------------------------|
E||-----------------------------------------------|


  PM PM PM PM PM PM PM PM PM PM PM PM PM                                 
  S  S  S  S  S  S  S  S  S  S  S  S  S  E.     E   E  E  E  E  Q    E   
---------------------------------------------|--------------------------|
---------------------------------------------|--------------------------|
--5--4-----4--------4-----7-----5-----4------|-----/7--7--7--7--7----7--|
--------7-----5--7-----5-----7-----7-----5---|-----/9--7--5--7--9----7--|
---------------------------------------------|--------------------------|
---------------------------------------------|--------------------------|


     |--3-|                                               
  E  S S  S Q     E  E  E  E     E  E  E  E  E  E  E  E   
------------------------------|--------------------------|
------------------------------|--------------------------|
--L---------------------------|-----7--7--7--7--7-----7--|
--L--7-9p-7-5--------5--7-----|-----9--7--5--7--9-----7--|
-----------------/7-----------|--------------------------|
---------------------------0--|--L-----------------------|


                     PM PM PM PM       PM                      
     |--3-|                                                    
  E  S S  S Q     E  S  S  S  S  E     E  E  E  E  E  Q    E   
------------------------------------|-------------------------|
------------------------------------|-------------------------|
--L---------------------------------|-----7--7--7--7--7----7--|
--L--7-9p-7-5--------5--5--7--5--5--|-----9--7--5--7--9----7--|
-----------------/7--------------3--|--3----------------------|
------------------------------------|-------------------------|


                     PM PM PM                               
     |--3-|                                                 
  E  S S  S Q     E  S  S  S  S E     E  Q    Q.     E  E   
--------------------------------2--|--L--2----3------3--2--|
--------------------------------3--|--L--3----3------3--3--|
--L-----------------------------2--|--L--2----2------2--2--|
--L--7-9p-7-5--------5--5--7--5-0--|--L--0----0------0--0--|
-----------------/7----------------|-----------------------|
-----------------------------------|-----------------------|


  H.           E  E     E  E  E  E  E  Q    E   
--L---------------3--|-------------------------|
--L---------------0--|-------------------------|
--L---------------0--|-----7--7--7--7--7----7--|
--L---------------0--|-----9--7--5--7--9----7--|
---------------------|-------------------------|
---------------------|-------------------------|


                     PM PM                                   
     |--3-|                                                  
  E  S S  S Q     E  S  S  E  E     E  E  E  E  E  E  E  E   
---------------------------------|--------------------------|
---------------------------------|--------------------------|
--L------------------------------|-----7--7--7--7--7-----7--|
--L--7-9p-7-5--------5--5--7-----|-----9--7--5--7--9-----7--|
-----------------/7--------------|--------------------------|
------------------------------0--|--L-----------------------|


                     PM PM PM PM       PM                      
     |--3-|                                                    
  E  S S  S Q     E  S  S  S  S  E     E  E  E  E  E  Q    E   
------------------------------------|-------------------------|
------------------------------------|-------------------------|
--L---------------------------------|-----7--7--7--7--7----7--|
--L--7-9p-7-5--------5--5--7--5--5--|-----9--7--5--7--9----7--|
-----------------/7--------------3--|--3----------------------|
------------------------------------|-------------------------|


                     PM PM PM                               
     |--3-|                                                 
  E  S S  S Q     E  S  S  S  S E     E  Q    Q.     E  E   
--------------------------------2--|--L--2----3------3--2--|
--------------------------------3--|--L--3----3------3--3--|
--L-----------------------------2--|--L--2----2------2--2--|
--L--7-9p-7-5--------5--5--7--5-0--|--L--0----0------0--0--|
-----------------/7----------------|-----------------------|
-----------------------------------|-----------------------|


  H.           E  E     E  E  E  E  E  Q    E   
--L---------------3--|-------------------------|
--L---------------0--|-------------------------|
--L---------------0--|-----7--7--7--7--7----7--|
--L---------------0--|-----9--7--5--7--9----7--|
---------------------|-------------------------|
---------------------|-------------------------|


                     PM PM                                   
     |--3-|                                                  
  E  S S  S Q     E  S  S  E  E     E  E  E  E  E  E  E  E   
---------------------------------|--------------------------|
---------------------------------|--------------------------|
--L------------------------------|-----7--7--7--7--7-----7--|
--L--7-9p-7-5--------5--5--7-----|-----9--7--5--7--9-----7--|
-----------------/7--------------|--------------------------|
------------------------------0--|--L-----------------------|


                     PM PM PM PM       PM                      
     |--3-|                                                    
  E  S S  S Q     E  S  S  S  S  E     E  E  E  E  E  Q    E   
------------------------------------|-------------------------|
------------------------------------|-------------------------|
--L---------------------------------|-----7--7--7--7--7----7--|
--L--7-9p-7-5--------5--5--7--5--5--|-----9--7--5--7--9----7--|
-----------------/7--------------3--|--3----------------------|
------------------------------------|-------------------------|


                     PM PM PM                               
     |--3-|                                                 
  E  S S  S Q     E  S  S  S  S E     E  Q    Q.     E  E   
--------------------------------2--|--L--2----3------3--2--|
--------------------------------3--|--L--3----3------3--3--|
--L-----------------------------2--|--L--2----2------2--2--|
--L--7-9p-7-5--------5--5--7--5-0--|--L--0----0------0--0--|
-----------------/7----------------|-----------------------|
-----------------------------------|-----------------------|


  H.           E  E     E   E   E   E   E   E  E   E      W                 
--L------------------|--------------------------------|--------------------|
--L------------------|-----12--10---8--10--12-----10--|---L----------------|
--L---------------0--|-----12--11---9--11--12-----11--|---L----------------|
--L---------------2--|--L--12--12--10--12--12-----12--|---L----------------|
---------------------|--------------------------------|--------------------|
------------------0--|--L-----------------------------|--------------------|


  E   E   E   E   E   E  E   E      E   E   H.            
--------------------------------|------------------------|
-----12--10---8--10--12-----10--|---L--12---8------------|
-----12--11---9--11--12-----11--|---L--12---9------------|
-----12--12--10--12--12-----12--|---L--12--10------------|
--------------------------------|------------------------|
--------------------------------|------------------------|


  E   E   E   E   E   E  E   E      E   E   E   H        E   
--------------------------------|------------------------0--|
-----12--10---8--10--12-----10--|---L--10--10--10--------0--|
-----12--11---9--11--12-----11--|---L--11--11--11--------0--|
-----12--12--10--12--12-----12--|---L--12--12--12--------2--|
--------------------------------|------------------------2--|
--------------------------------|------------------------0--|


  Q    Q    E  Q    E     E  E  E  E  E  E  E  E     E   E  E  E  E  Q    E   
-----------------------|--------------------------|--------------------------|
-----------------------|--------------------------|--------------------------|
--L--------------------|--------------------------|-----/7--7--7--7--7----7--|
--L----2----2--2-------|--2--2--2--2--2--2--2-----|-----/9--7--5--7--9----7--|
--L----2----2--2-------|--2--2--2--2--2--2--2-----|--------------------------|
--L----0----0--0----0--|--0--0--0--0--0--0--0--3--|--------------------------|


                     PM PM                                   
     |--3-|                                                  
  E  S S  S Q     E  S  S  E  E     E  E  E  E  E  E  E  E   
---------------------------------|--------------------------|
---------------------------------|--------------------------|
--L------------------------------|-----7--7--7--7--7-----7--|
--L--7-9p-7-5--------5--5--7-----|-----9--7--5--7--9-----7--|
-----------------/7--------------|--------------------------|
------------------------------0--|--L-----------------------|


                     PM PM PM PM       PM                      
     |--3-|                                                    
  E  S S  S Q     E  S  S  S  S  E     E  E  E  E  E  Q    E   
------------------------------------|-------------------------|
------------------------------------|-------------------------|
--L---------------------------------|-----7--7--7--7--7----7--|
--L--7-9p-7-5--------5--5--7--5--5--|-----9--7--5--7--9----7--|
-----------------/7--------------3--|--3----------------------|
------------------------------------|-------------------------|


                     PM PM PM                               
     |--3-|                                                 
  E  S S  S Q     E  S  S  S  S E     E  Q    Q.     E  E   
--------------------------------2--|--L--2----3------3--2--|
--------------------------------3--|--L--3----3------3--3--|
--L-----------------------------2--|--L--2----2------2--2--|
--L--7-9p-7-5--------5--5--7--5-0--|--L--0----0------0--0--|
-----------------/7----------------|-----------------------|
-----------------------------------|-----------------------|


  H.           E  E     E   E  E  E  E  Q    E   
--L---------------3--|--------------------------|
--L---------------0--|--------------------------|
--L---------------0--|-----/7--7--7--7--7----7--|
--L---------------0--|-----/9--7--5--7--9----7--|
---------------------|--------------------------|
---------------------|--------------------------|


                     PM PM                                   
     |--3-|                                                  
  E  S S  S Q     E  S  S  E  E     E  E  E  E  E  E  E  E   
---------------------------------|--------------------------|
---------------------------------|--------------------------|
--L------------------------------|-----7--7--7--7--7-----7--|
--L--7-9p-7-5--------5--5--7-----|-----9--7--5--7--9-----7--|
-----------------/7--------------|--------------------------|
------------------------------0--|--L-----------------------|


                     PM PM PM PM       PM                      
     |--3-|                                                    
  E  S S  S Q     E  S  S  S  S  E     E  E  E  E  E  Q    E   
------------------------------------|-------------------------|
------------------------------------|-------------------------|
--L---------------------------------|-----7--7--7--7--7----7--|
--L--7-9p-7-5--------5--5--7--5--5--|-----9--7--5--7--9----7--|
-----------------/7--------------3--|--3----------------------|
------------------------------------|-------------------------|


                     PM PM PM                               
     |--3-|                                                 
  E  S S  S Q     E  S  S  S  S E     E  Q    Q.     E  E   
--------------------------------2--|--L--2----3------3--2--|
--------------------------------3--|--L--3----3------3--3--|
--L-----------------------------2--|--L--2----2------2--2--|
--L--7-9p-7-5--------5--5--7--5-0--|--L--0----0------0--0--|
-----------------/7----------------|-----------------------|
-----------------------------------|-----------------------|


  H.           E  E     E   E   E  E   E   E  E   E      W                 
--L------------------|-------------------------------|--------------------|
--L------------------|-----12--10--8--10--12-----10--|---L----------------|
--L---------------0--|--L--12--11--9--11--12-----11--|---L----------------|
--L---------------2--|--L----------------------------|--------------------|
---------------------|-------------------------------|--------------------|
------------------0--|--L----------------------------|--------------------|


  E   E   E   E   E   E  E   E      E   E   H.            
--------------------------------|------------------------|
-----12--10---8--10--12-----10--|---L--12---8------------|
-----12--11---9--11--12-----11--|---L--12---9------------|
-----12--12--10--12--12-----12--|---L--12--10------------|
--------------------------------|------------------------|
--------------------------------|------------------------|


  E   E   E   E   E   E  E   E      E   E   E   H        E   
--------------------------------|------------------------0--|
-----12--10---8--10--12-----10--|---L--10--10--10--------0--|
-----12--11---9--11--12-----11--|---L--11--11--11--------0--|
-----12--12--10--12--12-----12--|---L--12--12--12--------2--|
--------------------------------|------------------------2--|
--------------------------------|------------------------0--|


  E  E  Q    E  Q.        E  E  E  E  E  E  E  E   
--L--0--0----0--0------|--0--0--0--0-----0-----0--|
--L--0--0----0--0------|--0--0--0--0-----0-----0--|
--L--0--0----0--0------|--0--0--0--0-----0-----0--|
--L--2--2----2--2------|--2--2--2--2-----2-----2--|
--L--2--2----2--2------|--2--2--2--2-----2-----2--|
--L--0--0----0--0------|--0--0--0--0-----0-----0--|


  E   E   E   E   E   E  E   E      W                 
--------------------------------|--------------------|
-----12--10---8--10--12-----10--|---L----------------|
--L--12--11---9--11--12-----11--|---L----------------|
--L--12--12--10--12--12-----12--|---L----------------|
--------------------------------|--------------------|
--L-----------------------------|--------------------|


  E   E   E   E   E   E  E   E      E   E   H.            
--------------------------------|------------------------|
-----12--10---8--10--12-----10--|---L--12---8------------|
-----12--11---9--11--12-----11--|---L--12---9------------|
-----12--12--10--12--12-----12--|---L--12--10------------|
--------------------------------|------------------------|
--------------------------------|------------------------|


  E   E   E   E   E   E  E   E      E   E   E   H        E   
--------------------------------|------------------------0--|
-----12--10---8--10--12-----10--|---L--10--10--10--------0--|
-----12--11---9--11--12-----11--|---L--11--11--11--------0--|
-----12--12--10--12--12-----12--|---L--12--12--12--------2--|
--------------------------------|------------------------2--|
--------------------------------|------------------------0--|


  E  E  Q    E  Q.        E  E  E  E  E  E  E  E     W                 
--L--0--0----0--0------|-----------------------3--|--L----------------|
-----0--0----0--0------|-----------------------0--|--L----------------|
--L--0--0----0--0------|-----------------------0--|--L----------------|
--L--2--2----2--2------|--2--2--2--2--2--2--2--0--|--L----------------|
--L--2--2----2--2------|--2--2--2--2--2--2--2-----|-------------------|
--L--0--0----0--0------|--0--0--0--0--0--0--0--3--|--L----------------|


  H.            E   E     E  E  E  E  E  E  E  E     E  E  E  E  E  E  S S  E   
--L-----------------0--|--------------------------|----------------------------|
--L-----------------0--|--------------------------|----------------------------|
--L-----------------0--|--------------------------|--------------5--5------12--|
--------------------2--|--------------------------|--------------5--5----x-12--|
---------------10\--2--|--L--2--2--2--2--2--2--2--|--2--2--2--2--3--3----x-10--|
--------------------0--|--L--0--0--0--0--0--0--0--|--0--0--0--0----------------|


   W                    H.           E  E     E  E  E  E  E  E  E  E   
--------------------|-------------------0--|--------------------------|
--------------------|-------------------0--|--------------------------|
---L----------------|---L---------------0--|--------------------------|
---L----------------|---L---------------2--|--------------------------|
---L----------------|---L---------------2--|--L--2--2--2--2--2--2--2--|
--------------------|-------------------0--|--L--0--0--0--0--0--0--0--|


  E  E  E  E  E  E  S S E     E  E  S S E  S S E  S S E   
------------------------3--|--L--------------------------|
------------------------0--|--L--------------------------|
--------------5--5------0--|--L--4--2-x-0--2-x-4--x-x-2--|
--------------5--5----x-0--|--L--------------------------|
--2--2--2--2--3--3----x----|-----------------------------|
--0--0--0--0---------------|-----------------------------|


     |-3-|                                                  
  E  S S S Q     E  E  E  E     E  E  S S E  S S E  S S E   
-----------------------------|-----------------------------|
-----------------------------|-----------------------------|
--L--2-4-2-------------------|-----4--2-x-0--2-x-4--x-x-2--|
-----------5--------5--7-----|-----------------------------|
----------------/7-----------|-----------------------------|
--------------------------0--|--L--------------------------|


     |-3-|                                                 
  E  S S S Q    E  E  E  E     E  E  S S E  S S E  S S E   
----------------------------|-----------------------------|
-------------------------0--|--0--------------------------|
--L--2-4-2---------------0--|--0--4--2-x-0--2-x-4--x-x-2--|
-----------5----5--5-----0--|--0--------------------------|
----------------3--3--------|-----------------------------|
-------------------------3--|--3--------------------------|


     |-3-|                                                   
  E  S S S Q     E  S S E  E     E  E  S S E  S S E  S S E   
------------------------------|-----------------------------|
------------------------------|-----------------------------|
--L--2-4-2--------------------|-----4--2-x-0--2-x-4--x-x-2--|
-----------5--------5-5-7-----|-----------------------------|
----------------/7------------|-----------------------------|
---------------------------0--|--L--------------------------|


     |-3-|                                                 
  E  S S S Q    E  E  E  E     E  E  S S E  S S E  S S E   
----------------------------|-----------------------------|
----------------------------|-----------------------------|
--L--2-4-2---------------0--|--0--4--2-x-0--2-x-4--x-x-2--|
-----------5----5--5-----0--|--0--------------------------|
----------------3--3--------|-----------------------------|
-------------------------3--|--3--------------------------|


     |-3-|                                                   
  E  S S S Q     E  S S E  E     E  E  S S E  S S E  S S E   
------------------------------|-----------------------------|
------------------------------|-----------------------------|
--L--2-4-2--------------------|-----4--2-x-0--2-x-4--x-x-2--|
-----------5--------5-5-7-----|-----------------------------|
----------------/7------------|-----------------------------|
---------------------------0--|--L--------------------------|


     |-3-|                                                 
  E  S S S Q    E  E  E  E     E  E  S S E  S S E  S S E   
----------------------------|-----------------------------|
----------------------------|--L--------------------------|
--L--2-4-2---------------0--|--L--4--2-x-0--2-x-4--x-x-2--|
-----------5----5--5-----0--|--L--------------------------|
----------------3--3--------|-----------------------------|
-------------------------3--|--L--------------------------|


     |-3-|                                                   
  E  S S S Q     E  S S E  E     E  E  S S E  S S E  S S E   
------------------------------|-----------------------------|
------------------------------|-----------------------------|
--L--2-4-2--------------------|-----4--2-x-0--2-x-4--x-x-2--|
-----------5--------5-5-7-----|-----------------------------|
----------------/7------------|-----------------------------|
---------------------------0--|--L--------------------------|


     |-3-|                                                 
  E  S S S Q    E  E  E  E     E  E  S S E  S S E  S S E   
----------------------------|-----------------------------|
----------------------------|--L--------------------------|
--L--2-4-2---------------0--|--L--4--2-x-0--2-x-4--x-x-2--|
-----------5----5--5-----0--|--L--------------------------|
----------------3--3--------|-----------------------------|
-------------------------3--|--L--------------------------|


     |-3-|                                                   
  E  S S S Q     E  S S E  E     E  E  S S E  S S E  S S E   
------------------------------|-----------------------------|
------------------------------|-----------------------------|
--L--2-4-2--------------------|-----4--2-x-0--2-x-4--x-x-2--|
-----------5--------5-5-7-----|-----------------------------|
----------------/7------------|-----------------------------|
---------------------------0--|--L--------------------------|


     |-3-|                                                 
  E  S S S Q    E  E  E  E     E  E  S S E  S S E  S S E   
----------------------------|-----------------------------|
----------------------------|--L--------------------------|
--L--2-4-2---------------0--|--L--4--2-x-0--2-x-4--x-x-2--|
-----------5----5--5-----0--|--L--------------------------|
----------------3--3--------|-----------------------------|
-------------------------3--|--L--------------------------|


     |-3-|                                                   
  E  S S S Q     E  S S E  E     E  E  S S E  S S E  S S E   
------------------------------|-----------------------------|
------------------------------|-----------------------------|
--L--2-4-2--------------------|-----4--2-x-0--2-x-4--x-x-2--|
-----------5--------5-5-7-----|-----------------------------|
----------------/7------------|-----------------------------|
---------------------------0--|-----------------------------|


     |-3-|                                                 
  E  S S S Q    E  E  E  E     E  E  S S E  S S E  S S E   
----------------------------|-----------------------------|
----------------------------|--L--------------------------|
--L--2-4-2---------------0--|--L--4--2-x-0--2-x-4--x-x-2--|
-----------5----5--5-----0--|--L--------------------------|
----------------3--3--------|-----------------------------|
-------------------------3--|--L--------------------------|


     |-3-|                                                    
  E  S S S Q     E  S S E  E     E  E  S S E  S S E  S S E    
------------------------------|-----------------------------||
------------------------------|-----------------------------||
--L--2-4-2--------------------|-----4--2-x-0--2-x-4--x-x-2--||
-----------5--------5-5-7-----|-----------------------------||
----------------/7------------|-----------------------------||
---------------------------0--|--L--------------------------||




===================================================================
===================================================================

                               The Party's Over                                 


                                                                         Journey
Licks and solo




          W                   W                   W                 
-------|-------------------|-------------------|-------------------|
-------|--8----------------|--8----------------|--8----------------|
-------|-------------------|-------------------|-------------------|
-------|--5----------------|--5----------------|--5----------------|
-------|-------------------|-------------------|-------------------|
-------|-------------------|-------------------|-------------------|


  W                   W                   W                                     
-------------------|-------------------|-------------------|-------------------|
--8----------------|--8----------------|--8----------------|-------------------|
-------------------|-------------------|-------------------|-------------------|
--5----------------|--5----------------|--5----------------|-------------------|
-------------------|-------------------|-------------------|-------------------|
-------------------|-------------------|-------------------|-------------------|


   E   E   E   E  E  E  E  E                                                   
------------------------------|-------|-------|-------|-------|-------|-------|
------------------------------|-------|-------|-------|-------|-------|-------|
------------------------------|-------|-------|-------|-------|-------|-------|
--12--12--10--10--9--9--7--5--|-------|-------|-------|-------|-------|-------|
------------------------------|-------|-------|-------|-------|-------|-------|
--10--10---8---8--7--7--5--3--|-------|-------|-------|-------|-------|-------|


solo


                        NH     NH     /1            -\1                       
  W                     Q      Q      H             W                         
--L----------------|---------------------------|---------------------|-------|
--L----------------|---------------------------|---------------------|-------|
--L----------------|--<>5----<>7---------------|---------------------|-------|
--L----------------|----------------<>7--------|--<>7----------------|-------|
-------------------|---------------------------|---------------------|-------|
--L----------------|---------------------------|---------------------|-------|







Duration Legend
---------------
W - whole
H - half
Q - quarter
E - 8th
S - 16th
T - 32nd
X - 64th
. - note dotted
|-n-|  - n-tuplets


Tablature Legend
----------------
L - tied note
x - dead note
g - grace note
(n) - ghost note
> - accentuded note
NH - natural harmonic
AH - artificial harmonic
TH - tapped harmonic
SH - semi harmonic
PH - pitch harmonic
h - hammer on
p - pull off
b - bend
br - bendRelease
pb - preBend
pbr - preBendRelease
brb - bendReleaseBend
\n/ - tremolo bar dip
\n - tremolo bar dive
-/n - tremolo bar Release up
/n\ - tremolo bar inverted dip
/n - tremolo bar return
-\n - tremolo bar Release down
S - shift slide
s - legato slide
/ -  slide into from below or out of upwards
\ -  slide into from above or out of downwards
~ - vibrato
W - wide vibrato
tr - trill
TP - tremolo picking
T - tapping
S - slap
P - pop
< - fade in
^ - brush up
v - brush down





Comments


Popular Journey tabs & chords
Lovin Touchin Squeezin Bass Tabs
Faithfully 3 Chords
Only The Young Chords
Only The Young 1 Chords
Open Arms 3 Chords
Like A Sunshower Intro Tabs
Majestic Tabs
Message Of Love Tabs
When You Love A Woman Tabs
Lovin Touchin Squeezin Ukulele


Song lyrics



↑ Back to top | Tablatures and chords are parodies/interpretations of the original songs. You may use it for private study, scholarship, research or language learning purposes only
© 2014 AZChords.com Contact us | Privacy policy | DMCA | Add/correct tabs | Request tabs | Top 50 tabs