>
 >
The Partys Over

The Partys Over Bass Tabs

Journey - The Partys Over chords, tabs, tablatures, lyrics

Guitar lessons | Add/correct | Request | Top 50 tabs Artists:  A B C D E F G H I J K L M N O P Q R S T U V W X Y Z 0-9

The Partys Over Bass Tabs – Journey

CD, Sheet music, Poster

Do you like The Partys Over? Share with your friends now
Bass TabsTabsTabs v2
-----------------------------------------------------------------------------
         The Party's Over (Hopelessly In Love) - Journey (BASS)
                       
-----------------------------------------------------------------------------

Tuning: Standard

=============================================================================

Bass



     E  Q    S S E  Q    E     E  Q    S S E  Q    E   
G||-------------------------|-------------------------|
D||-------------------------|-------------------------|
A||-------------------------|-------------------------|
E||--3---------3-3----------|--3---------3-3----------|


  E  E  E  E  E  E  E  E     E  E  E  E  E  E  E  E   
--------------------------|--------------------------|
--------------------------|--------------------------|
--------------------------|--------------------------|
--3--3--3--3--3--3--3--3--|--3--3--3--3--3--3--3--0--|


  E  E  E  E  E  E  E  E     E  E  E  E  E  E  E  E   
--------------------------|--------------------------|
--------------------------|--------------------------|
--------------------------|-----------------------3--|
--L--0--0--0--0--0--0--0--|--0--0--0--0--0--0--0-----|


  E  E  E  E  E  E  E  E     E  E  E  E  E  E  E  E   
--------------------------|--------------------------|
--------------------------|--------------------------|
--L--3--3--3--3--3--3--3--|--3--3--3--3--3--3-----5--|
--------------------------|--------------------------|


  E  E  E  E  E  E  E  E     E  E  E  E  E  E  E  E   
--------------------------|--------------------------|
--------------------------|--------------------------|
--L--5--5--5--5--5--5--5--|--5--5--3--3--2--2--0-----|
--------------------------|-----------------------3--|


  E  E  E  E  E  E  E  E     E  E  E  E  E  E  E  E   
--------------------------|--------------------------|
--------------------------|--------------------------|
--------------------------|--------------------------|
-----3--3--3--3--3--3--3--|--3--3--3--3--3--3--3--0--|


  E  E  E  E  E  E  E  E     E  E  E  E  E  E  E  E   
--------------------------|--------------------------|
--------------------------|--------------------------|
--------------------------|-----------------------3--|
--L--0--0--0--0--0--0--0--|--0--0--0--0--0--0--0-----|


  E  E  E  E  E  E  E  E     E  E  E  E  Q    E  E     E  E  E  E  E  E  E  E   
--------------------------|-------------------------|--------------------------|
--------------------------|-------------------------|--------------------------|
--L--3--3--3--3--3--3--3--|--3--3--3--3--3-------5--|--L--5--5--5--5--5--5--5--|
--------------------------|-------------------------|--------------------------|


  E  E  E  E  E  E  E  E     E  E  E  E  E  E  E  E   
--------------------------|--------------------------|
--------------------------|--------------------------|
--5--5--3--3--2--2--0-----|--------------------------|
-----------------------3--|--3--3--3--3--3--3--3--3--|


  E  E  E  E  E  E  E  E     E  E  E  E  E  E  E  E   
--------------------------|--------------------------|
--------------------------|--------------------------|
--------------------------|--------------------------|
--3--3--3--3--3--3--3--0--|--L--0--0--0--0--0--0--0--|


  E  E  E  E  E  E  E  E     E  E  E  E  E  E  E  E     E  E  E  E  Q    E  E   
--------------------------|--------------------------|-------------------------|
--------------------------|--------------------------|-------------------------|
-----------------------3--|--L--3--3--3--3--3--3--3--|--3--3--3--3--3-------5--|
--0--0--0--0--0--0--0-----|--------------------------|-------------------------|


  E  E  E  E  E  E  E  E     E  E  E  E  E  E  E  E   
--------------------------|--------------------------|
--------------------------|--------------------------|
--L--5--5--5--5--5--5--5--|--5--5--3--3--2--2--0-----|
--------------------------|-----------------------0--|


  E  E  E  E  E  E  E  E     E  E  E  E  E  E  E  E   
--------------------------|--------------------------|
--------------------------|--------------------------|
--------------------------|-----------------------3--|
--L--0--0--0--0--0--0--0--|--0--0--0--0--0--0--0-----|


  E  E  E  E  E  E  E  E     E  E  E  E  E  E  E  E   
--------------------------|--------------------------|
--------------------------|--------------------------|
--L--3--3--3--3--3--3--3--|--3--3--3--3--3--3--3--5--|
--------------------------|--------------------------|


  E  E  E  E  E  E  E  E     E  E  E  E  E  E  E  E     E  E  Q    E  Q    E   
--------------------------|--------------------------|------------------------|
--------------------------|--------------------------|------------------------|
--L--5--5--5--5--5--5--5--|--5--5--5--5--5--5--x-----|------------------------|
--------------------------|-----------------------0--|--0--0--0----0--0----0--|


  E  E  E  E  E  E  E  E     E  E  E  E  E  E  E  E   
--------------------------|--------------------------|
--------------------------|--------------------------|
--5--5--5--5--5--5--5-----|--------------------------|
-----------------------3--|-----3--3--3--3--3--3--3--|


  E  E  E  E  E  E  E  E     E  E  E  E  E  E  E  E   
--------------------------|--------------------------|
--------------------------|--------------------------|
--------------------------|--------------------------|
--3--3--3--3--3--3--3--0--|--L--0--0--0--0--0--0--0--|


  E  E  E  E  E  E  E  E     E  E  E  E  E  E  E  E   
--------------------------|--------------------------|
--------------------------|--------------------------|
-----------------------3--|--L--3--3--3--3--3--3--3--|
--0--0--0--0--0--0--0-----|--------------------------|


  E  E  E  E  E  E  E  E     E  E  E  E  E  E  E  E   
--------------------------|--------------------------|
--------------------------|--------------------------|
--3--3--3--3--3--3-----5--|--L--5--5--5--5--5--5--5--|
--------------------------|--------------------------|


  E  E  E  E  E  E  E  E     E  E  E  E  E  E  E  E   
--------------------------|--------------------------|
--------------------------|--------------------------|
--5--5--3--3--2--2--0-----|--------------------------|
-----------------------3--|--L--3--3--3--3--3--3--3--|


  E  E  E  E  E  E  E  E     E  E  E  E  E  E  E  E   
--------------------------|--------------------------|
--------------------------|--------------------------|
--------------------------|--------------------------|
--3--3--3--3--3--3--3--0--|--L--0--0--0--0--0--0--0--|


  E  E  E  E  E  E  E  E     E  E  E  E  E  E  E  E     E  E  E  E  Q    E  E   
--------------------------|--------------------------|-------------------------|
--------------------------|--------------------------|-------------------------|
-----------------------3--|--L--3--3--3--3--3--3--3--|--3--3--3--3--3-------5--|
--0--0--0--0--0--0--0-----|--------------------------|-------------------------|


  E  E  E  E  E  E  E  E     E  E  E  E  E  E  E  E   
--------------------------|--------------------------|
--------------------------|--------------------------|
--L--5--5--5--5--5--5--5--|--5--5--3--3--2--2--0-----|
--------------------------|-----------------------0--|


  E  E  E  E  E  E  E  E     E  E  E  E  E  E  E  E   
--------------------------|--------------------------|
--------------------------|--------------------------|
--------------------------|-----------------------3--|
--0--0--0--0--0--0--0--0--|--0--0--0--0--0--0--0-----|


  E  E  E  E  E  E  E  E     E  E  E  E  E  E  E  E   
--------------------------|--------------------------|
--------------------------|--------------------------|
--L--3--3--3--3--3--3--3--|--3--3--3--3--3--3--3--5--|
--------------------------|--------------------------|


  E  E  E  E  E  E  E  E     E  E  E  E  E  E  E  E     E  E  Q    E  Q    E   
--------------------------|--------------------------|------------------------|
--------------------------|--------------------------|------------------------|
--L--5--5--5--5--5--5--5--|--5--5--5--5--5--5--x-----|------------------------|
--------------------------|-----------------------0--|--0--0--0----0--0----0--|


  E  E  E  E  E  E  E  E     E  E  E  E  E  E  E  E   
--------------------------|--------------------------|
--------------------2-----|--------------------------|
--------------------------|--------------------------|
--0--0--0--0--L--0-----0--|--L--0--0--0--0--0--0--0--|


  E  E  E  E  E  E  E  E     E  E  E  E  E  E  E  E     E  E  E  E  E  Q    E   
--------------------------|--------------------------|-------------------------|
--------------------------|--------------------------|-------------------------|
-----------------------3--|--L--3--3--3--3--3--3--3--|--3--3--3--3--3--3----5--|
--0--0--0--0--0--0--0-----|--------------------------|-------------------------|


  E  E  E  E  E  E  E  E     E  E  E  E  E  E  E  E     W                 
--------------------------|--------------------------|-------------------|
--------------------------|--------------------------|-------------------|
--L--5--5--5--5--5--5--5--|--5--5--5--5--5-----5-----|-------------------|
--------------------------|-----------------------0--|--L----------------|


  E  E  E  E  E  E  E  E     W                   H.           E  E   
--------------------------|-------------------|---------------------|
--------------------------|-------------------|---------------------|
--5--5--3--3--2--2--0-----|-------------------|---------------------|
-----------------------3--|--L----------------|--L------------L--0--|


  E  E  E  E  E  E  E  E     E  E  E  E  E  E  E  E     W                 
--------------------------|--------------------------|-------------------|
--------------------------|--------------------------|-------------------|
--------------------------|--------------3--3--------|-------------------|
--L--0--0--0--0--0--0--0--|--0--0--0--0-----------3--|--L----------------|


  H.           Q       H.           E  E     E  E  E  E  E  E  E  E   
--------------------|---------------------|--------------------------|
--------------------|---------------------|--------------------------|
--------------------|---------------5-----|--------------3--3--------|
--L-----------------|--0---------------0--|--0--0--0--0-----------3--|


  E  E  E  E  E  E  E  E     E  E  E  E  E  E  E  E   
--------------------------|--------------------------|
--------------------------|--------------------------|
--------------------------|--------------------------|
--L--3--3--3--3--3--3--3--|--3--3--3--3--3--2-----0--|


  E  E  E  E  E  E  E  E     E  E  E  E  E  E  E  E   
--------------------------|--------------------------|
--------------------------|--------------------------|
--------------------------|--------------3--3--------|
--0--0--0--0--0--0--0--0--|--0--0--0--0-----------3--|


  E  E  E  E  E  E  E  E     E  E  E  E  E  E  E  E   
--------------------------|--------------------------|
--------------------------|--------------------------|
--------------------------|--------------------------|
--L--3--3--3--3--3--3--3--|--3--3--3--3--3--2-----0--|


  E  E  E  E  E  E  E  E     E  E  E  E  E  E  E  E   
--------------------------|--------------------------|
--------------------------|--------------------------|
--------------------------|--------------3--3--------|
--0--0--0--0--0--0--0--0--|--0--0--0--0-----------3--|


  E  E  E  E  E  E  E  E     E  E  E  E  E  E  E  E   
--------------------------|--------------------------|
--------------------------|--------------------------|
--------------------------|--------------------------|
--3--3--3--3--3--3--3--3--|--3--3--3--3--3--2-----0--|


  E  E  E  E  E  E  E  E     E  E  E  E  E  E  E  E   
--------------------------|--------------------------|
--------------------------|--------------------------|
--------------------------|--------------3--3--------|
--0--0--0--0--0--0--0--0--|--0--0--0--0-----------3--|


  E  E  E  E  E  E  E  E     E  E  E  E  E  E  E  E   
--------------------------|--------------------------|
--------------------------|--------------------------|
--------------------------|--------------------------|
--3--3--3--3--3--3--3--3--|--3--3--3--3--3--2-----0--|


  E  E  E  E  E  E  E  E     E  E  E  E  E  E  E  E   
--------------------------|--------------------------|
--------------------------|--------------------------|
--------------------------|--------------3--3--------|
--0--0--0--0--0--0--0--0--|--0--0--0--0-----------3--|


  E  E  E  E  E  E  E  E     E  E  E  E  E  E  E  E   
--------------------------|--------------------------|
--------------------------|--------------------------|
--------------------------|--------------------------|
--3--3--3--3--3--3--3--3--|--3--3--3--3--3--2-----0--|


  E  E  E  E  E  E  E  E     E  E  E  E  E  E  E  E   
--------------------------|--------------------------|
--------------------------|--------------------------|
--------------------------|--------------3--3--------|
--0--0--0--0--0--0--0--0--|--0--0--0--0-----------3--|


  E  E  E  E  E  E  E  E     E  E  E  E  E  E  E  E   
--------------------------|--------------------------|
--------------------------|--------------------------|
--------------------------|--------------------------|
--3--3--3--3--3--3--3--3--|--3--3--3--3--3--2-----0--|


  E  E  E  E  E  E  E  E     E  E  E  E  E  E  E  E   
--------------------------|--------------------------|
--------------------------|--------------------------|
--------------------------|--------------3--3--------|
--0--0--0--0--0--0--0--0--|--0--0--0--0-----------3--|


  E  E  E  E  E  E  E  E     E  E  E  E  E  E  E  E   
--------------------------|--------------------------|
--------------------------|--------------------------|
--------------------------|--------------------------|
--3--3--3--3--3--3--3--3--|--3--3--3--3--3--2-----0--|


  E  E  E  E  E  E  E  E    
--------------------------||
--------------------------||
--------------------------||
--0--0--0--0--0--0--0--0--||




Duration Legend
---------------
W - whole
H - half
Q - quarter
E - 8th
S - 16th
T - 32nd
X - 64th
. - note dotted
|-n-|  - n-tuplets


Tablature Legend
----------------
L - tied note
x - dead note
g - grace note
(n) - ghost note
> - accentuded note
NH - natural harmonic
AH - artificial harmonic
TH - tapped harmonic
SH - semi harmonic
PH - pitch harmonic
h - hammer on
p - pull off
b - bend
br - bendRelease
pb - preBend
pbr - preBendRelease
brb - bendReleaseBend
\n/ - tremolo bar dip
\n - tremolo bar dive
-/n - tremolo bar Release up
/n\ - tremolo bar inverted dip
/n - tremolo bar return
-\n - tremolo bar Release down
S - shift slide
s - legato slide
/ -  slide into from below or out of upwards
\ -  slide into from above or out of downwards
~ - vibrato
W - wide vibrato
tr - trill
TP - tremolo picking
T - tapping
S - slap
P - pop
< - fade in
^ - brush up
v - brush down





Comments


Popular Journey tabs & chords
Any Way You Want It 1 Bass Tabs
Lights 2 Bass Tabs
Wheel In The Sky 1 Chords
Dont Stop Believing 4 Tabs
Faithfully 3 Tabs
It's Just The Rain Tabs
Of A Lifetime Intro 1 Tabs
The Partys Over Intro Tabs
Whos Crying Now 3 Tabs
When I Think Of You Ukulele


Song lyrics



↑ Back to top | Tablatures and chords are parodies/interpretations of the original songs. You may use it for private study, scholarship, research or language learning purposes only
© 2014 AZChords.com Contact us | Privacy policy | DMCA | Add/correct tabs | Request tabs | Top 50 tabs