>
 >
The Partys Over

The Partys Over Guitar Tabs

Journey - The Partys Over chords, tabs, tablatures, lyrics

Guitar lessons | Add/correct | Request | Top 50 tabs Artists:  A B C D E F G H I J K L M N O P Q R S T U V W X Y Z 0-9

The Partys Over Guitar Tabs – Journey

CD, Sheet music, Poster

Do you like The Partys Over? Share with your friends now
Bass TabsTabsTabs v2
-------------------------------------------------------------------------------
                             The Party's Over - Journey
-------------------------------------------------------------------------------

Tuning:Standard
        (Intro is fast, 30 muted notes with hammer-ons ans pull-offs on the G
and D strings)  This sounds pretty close to me. I haven't seen any other attempts
to tab this song. Please feel free to tweak or critic this
        sl                               sl         ~~      sl
e|----------------------------------------------------|----------------------|
B|----3-\--1----0----1---3----0-----1--(1)--/--3------|----------------------|
G|----4-\--2----0----2---4----0-----2--(2)--/--4------|----------------------|
D|------------------------------------------------5-~-|------------5---7----2|
A|----------------------------------------------------|----5-/-7------------2|
E|----------------------------------------------------|---------------------0|
      Slight pm                                           1st X
e|----------------------|----------------------------------------------------|
B|----------------------|-------------------------7---------8-----7----------|
G|-------------------5--|-------------------------7------7--7-----7---------7|
D|---------5--5--5---5--|----------------5----7---7---7---------------------7|
A|--/-7--------------3--|-----5--/-7--------------5------------5--------5---5|
E|----------------------|----------------------------------------------------|
   2nd X                  3rd X
e|---------------------------------------------|-----------------------------|
B|-------------------------------------------3-|-----------------------------|
G|-7-----------------------------------------0-|-----------------------------|
D|-7--------5-----5-------4----4------0------0-|-----------------------------|
A|-5--------3-----3-------2----2------0------0-|-----------------------------|
E|-------------------------------------------3-|-----------------------------|
             (Keyboard)                                                   You                    
e|---------------------------------------------------------------------------|
B|---------------------------------------------------------------------------|
G|---------------------------------------------------------------------------|
D|---------------------------------------------------------------------------|
A|---------------------------------------------------------------------------|
E|---------------------------------------------------------------------------|

e|---------------------------------------------------------------------------|
B|--------8-p-7---8----7----8-------8-~--7--7--------------------------------|
G|--------7---7---7----7----7-------7-~--7--7--------------------------------|
D|--------7------------------------------------------------------------------|
A|--------------------------------5------------------------------------------|
E|--0---------------------------------------------0--------------------------|
                                 pm                                      Hope
e|---------------------------------------------------------------------------|
B|---------------------------------------------------------------------------|
G|---------------------------------------------------------------------------|
D|---------------------------------------------------------------------------|
A|---------------------------------------------------------------------------|
E|---------------------------------------------------------------------------|
                                       Bar
e|--0------------5(+)---------------------------------------------------------|
B|--3--------------------5(+)-------------------------------------------------|
G|--0----------------------------5(+)-( V )-----------------------------------|
D|--0------------------------------------------2------------------------2---0-|
A|--0------------------------------------------2------------------------0---0-|
E|--3------------------------------------------0-------0-0-0-0-0-0-0-0--------|
                                       Bar
e|--0------------5(+)---------------------------------------------------------|
B|--3--------------------5(+)-------------------------------------------------|
G|--0----------------------------5(+)-( V )-----------------------------------|
D|--0------------------------------------------2------------------------2---0-|
A|--0------------------------------------------2------------------------0---0-|
E|--3------------------------------------------0-------0-0-0-0-0-0-0-0--------|


************************************

| /   slide up
| \   slide down
| h   hammer-on
| p   pull-off
| ~   vibrato
| +   harmonic
| x   Mute note
| b   Bend
| pb  Pre-bend
| br  Bend release
| pbr Pre-bend release
| brb Bend release bend





Comments


Popular Journey tabs & chords
Ask The Lonely Chords
Dont Stop Believing 4 Chords
It's Just The Rain Tabs
Lights 2 Tabs
Separate Ways Tabs
Signs Of Life 1 Tabs
Suzanne Tabs
Edge Of The Blade Ukulele
Lovely Woman Ukulele
When I Think Of You Ukulele


Song lyrics



↑ Back to top | Tablatures and chords are parodies/interpretations of the original songs. You may use it for private study, scholarship, research or language learning purposes only
© 2014 AZChords.com Contact us | Privacy policy | DMCA | Add/correct tabs | Request tabs | Top 50 tabs