» » »

Open Arms Tabs (ver.6)

Artists:  A B C D E F G H I J K L M N O P Q R S T U V W X Y Z # 

Open Arms Tabs (ver.6)

Journey
Rating:
0/5 (0 votes)

Hard to play? Try these video lessons and learn fast.
                (Intro)
i had to do this cuz there was several tabs of chords but i wanted the actual tabs
for the intro, so i had to pick it out! with the help of my girlfriend!
 

E|-----------------------------------------------------------------|
B|------------7----------------------------------------------------|
G|--------9--------7---------------9-----6--7----------------------|
D|----7----------------7------7------------------------------------|
A|-----------------------------------------------------------------|
E|-----------------------------------------------------------------|

E|-----------------------------------------------------------------|
B|-----------------------------------------------------------------|
G|---7-6-7-6-------6----4------------------------------------------|
D|-------------7---------------------------------------------------|
A|-----------------------------------------------------------------|
E|-----------------------------------------------------------------|
Then thats pretty much it.... just repeat as many times as needed till u get to the
next part.
            
Hard to play? Try these video lessons and learn fast. | Correct




comments powered by Disqus
↑ Back to top | Tablatures and chords are parodies/interpretations of the original songs. You may use it for private study, scholarship, research or language learning purposes only