» » »

Open Arms Tabs (ver.5)

Artists:  A B C D E F G H I J K L M N O P Q R S T U V W X Y Z # 

Open Arms Tabs (ver.5)

Journey
Rating:
0/5 (0 votes)

Hard to play? Try these video lessons and learn fast.
                (Intro)
repeat

E---------------------------------------------------|
B------7--------------------------------------------|
D----9---7------9--6-7--7-6-7-6--6--4---------------|
G--7-------7--7-----------------7-------------------|
A---------------------------------------------------|
E---------------------------------------------------|

Repeat then play the first part twice again
E------5--2-5--3-5--7-5--3-2-0--5--3-2-0------------|
B----7----------------------------------------------|
D---7-----------------------------------------------|
G--7------------------------------------------------|
A---------------------------------------------------|
E---------------------------------------------------|
            
Hard to play? Try these video lessons and learn fast. | Correct




comments powered by Disqus
↑ Back to top | Tablatures and chords are parodies/interpretations of the original songs. You may use it for private study, scholarship, research or language learning purposes only