» » »

Open Arms Tabs (ver.4)

Artists:  A B C D E F G H I J K L M N O P Q R S T U V W X Y Z # 

Open Arms Tabs (ver.4)

Journey
Rating:
0/5 (0 votes)

Hard to play? Try these video lessons and learn fast.
                This is Open Arms, for how I play it. I can't say I didn't get help, but I did
get help from the other Intro. Tabs. Hopefully this goes well :) I don't gots GuitarPro, so :P


|--------------------------|
|---7----------------------|
|--9-7---9-6-7-7-6-7-6-2-4-| x2
|-7---7-7-------------7----|
|--------------------------|
|--------------------------|


|---------------------------|
|---7-----------------------|
|--9-7---9-6-7-7-6-7-6-6-4--|
|-7---7-7-------------7-----|
|---------------------------|
|---------------------------|


|--------------------------------|
|--------------------------------|
|-9-9-9-9-9-9--11-11-11-11-11-11-|
|--------------------------------|
|--------------------------------|
|--------------------------------|


|------------------------------------------------------|
|------------------------------------------------------|
|-7-7-7-6-7-6-4-4-4-7-7-7-9-9-9-11-12-13-14-12-14-12-14|
|------------------------------------------------------|
|------------------------------------------------------|
|------------------------------------------------------|

|--------------------------------------------------------|
|-12-11-10-----------------------------------------------|
|---------12-14-12-11-9-11-12-14-12-11-9-7-11-12-14-12-14|
|--------------------------------------------------------|
|--------------------------------------------------------|
|--------------------------------------------------------|

|-----------------------------------------------------|
|------12-11-10---------------------------------------|
|-12-14--------12-14-12-11-9-11-12-14-12-11-9-7-7s6s7-|
|-----------------------------------------------------|
|-----------------------------------------------------|
|-----------------------------------------------------|

|---------------------------|
|---7-----------------------|
|--9-7---9-6-7-7-6-7-6-2-4--| 
|-7---7-7-------------7-----|
|---------------------------|
|---------------------------|

|---------------------------|
|---7-----------------------|
|--9-7---9-6-7-7-6-7-6-6-4--| x2
|-7---7-7-------------7-----|
|---------------------------|
|---------------------------|


|--------------------------------|
|--------------------------------|
|-9-9-9-9-9-9--11-11-11-11-11-11-|
|--------------------------------|
|--------------------------------|
|--------------------------------|


|------------------------------------------------------|
|------------------------------------------------------|
|-7-7-7-6-7-6-4-4-4-7-7-7-9-9-9-11-12-13-14-12-14-12-14|
|------------------------------------------------------|
|------------------------------------------------------|
|------------------------------------------------------|

|--------------------------------------------------------|
|-12-11-10-----------------------------------------------|
|---------12-14-12-11-9-11-12-14-12-11-9-7-11-12-14-12-14|
|--------------------------------------------------------|
|--------------------------------------------------------|
|--------------------------------------------------------|

|-----------------------------------------------------|
|------12-11-10---------------------------------------|
|-12-14--------12-14-12-11-9-11-12-14-12-11-9-7-7s6s7-|
|-----------------------------------------------------|
|-----------------------------------------------------|
|-----------------------------------------------------|

|-----------------------------|
|---7------7------7-----------|
|--9-7----9-7----9-7-5-3-5s7--|
|-7---7--7---7--7-------------|
|-----------------------------|
|-----------------------------|
            
Hard to play? Try these video lessons and learn fast. | Correct




comments powered by Disqus
↑ Back to top | Tablatures and chords are parodies/interpretations of the original songs. You may use it for private study, scholarship, research or language learning purposes only