>
 >
Majestic 1

Majestic 1 Guitar Tabs

Journey - Majestic 1 chords, tabs, tablatures, lyrics

Guitar lessons | Add/correct | Request | Top 50 tabs Artists:  A B C D E F G H I J K L M N O P Q R S T U V W X Y Z 0-9

Majestic 1 Guitar Tabs – Journey

CD, Sheet music, Poster

Do you like Majestic 1? Share with your friends now
Bass TabsTabsTabs v2
-----------------------------------------------------------------------------
                      Majestic - Journey (GUITAR)
                       
-----------------------------------------------------------------------------

Tuning: Standard

=============================================================================
                                   
Guitar



     Q    E  E  E  E     E  E  E  E  Q       Q    E  E  E  E   
E||----------------5--|--------------5----|----------------5--|
B||-------------0-----|-----------0-------|-------------0-----|
G||----------5--------|--------5----------|----------5--------|
D||--0----0-----------|--0--0-------------|--0----0-----------|
A||-------------------|-------------------|-------------------|
E||-------------------|-------------------|-------------------|


  E  E  E  E  Q       Q    E  E  E  E     E  E  E  E  Q       Q    E  E  E  E   
--------------5----|----------------5--|--------------5----|----------------5--|
-----------0-------|-------------0-----|-----------0-------|-------------0-----|
--------5----------|----------5--------|--------5----------|----------5--------|
--0--0-------------|--0----0-----------|--0--0-------------|--0----0-----------|
-------------------|-------------------|-------------------|-------------------|
-------------------|-------------------|-------------------|-------------------|


  E  E  E  E  Q       E  E  E  E  Q       Q    E  E  E  E   
--------------5----|--------------2----|----------------2--|
-----------0-------|-----------0-------|-------------0-----|
--------5----------|--------2----------|----------2--------|
--0--0-------------|--0--0-------------|--0----0-----------|
-------------------|-------------------|-------------------|
-------------------|-------------------|-------------------|


  E  E  E  E  E  E     Q    E  E  E  E     Q    E  E  E  E   
--------------2-----|----------------2--|----------------0--|
-----------0-----0--|-------------0-----|-------------0-----|
--------2-----------|-------2-----------|----------2--------|
--0--0--------------|--0-------0--------|--0----0-----------|
--------------------|-------------------|-------------------|
--------------------|-------------------|-------------------|


  E  E  E  E  E  E     Q    E  E  E  E     E  E  E  E  E  E   
--------------0-----|----------------0--|--------------0-----|
-----------0-----0--|-------------0-----|-----------0-----0--|
--------2-----------|----------2--------|--------2-----------|
--0--0--------------|--0----0-----------|--0--0--------------|
--------------------|-------------------|--------------------|
--------------------|-------------------|--------------------|


  Q    E  E  E  E     E  E  E  E  E  E     H        Q       H        Q     
----------------0--|--------------0-----|----------------|----------------|
-------------0-----|-----------0-----0--|----------------|----------------|
----------2--------|--------2-----------|----------------|----------------|
--0----0-----------|--0--0--------------|----------------|----------------|
-------------------|--------------------|----------------|----------------|
-------------------|--------------------|----------------|----------------|


  W                   W                   W                   W                 
-------------------|-------------------|-------------------|-------------------|
-------------------|-------------------|-------------------|-------------------|
-------------------|-------------------|-------------------|-------------------|
-------------------|-------------------|-------------------|-------------------|
-------------------|-------------------|-------------------|-------------------|
-------------------|-------------------|-------------------|-------------------|


  W                   W                   W                   W                 
-------------------|-------------------|-------------------|-------------------|
-------------------|-------------------|-------------------|-------------------|
-------------------|-------------------|-------------------|-------------------|
-------------------|-------------------|-------------------|-------------------|
-------------------|-------------------|-------------------|-------------------|
-------------------|-------------------|-------------------|-------------------|


  W                   W                   W                   W                 
-------------------|-------------------|-------------------|-------------------|
-------------------|-------------------|-------------------|-------------------|
-------------------|-------------------|-------------------|-------------------|
-------------------|-------------------|-------------------|-------------------|
-------------------|-------------------|-------------------|-------------------|
-------------------|-------------------|-------------------|-------------------|


  W                   W                   W                   W                 
-------------------|-------------------|-------------------|-------------------|
-------------------|-------------------|-------------------|-------------------|
-------------------|-------------------|-------------------|-------------------|
-------------------|-------------------|-------------------|-------------------|
-------------------|-------------------|-------------------|-------------------|
-------------------|-------------------|-------------------|-------------------|


  W                   W                   W                   W                 
-------------------|-------------------|-------------------|-------------------|
-------------------|-------------------|-------------------|-------------------|
-------------------|-------------------|-------------------|-------------------|
-------------------|-------------------|-------------------|-------------------|
-------------------|-------------------|-------------------|-------------------|
-------------------|-------------------|-------------------|-------------------|


  W                   W                   W                 
-------------------|-------------------|-------------------|
-------------------|-------------------|-------------------|
-------------------|-------------------|-------------------|
-------------------|-------------------|-------------------|
-------------------|-------------------|-------------------|
-------------------|-------------------|-------------------|


-------------------||
-------------------||
-------------------||
-------------------||
-------------------||
-------------------||





=========================================================
=========================================================


                                   Majestic                                     


                                                                         Journey
Electric Guitar



     H        Q       H        Q       H        Q       H        Q     
E||----------------|----------------|----------------|----------------|
B||----------------|----------------|----------------|----------------|
G||----------------|----------------|----------------|----------------|
D||----------------|----------------|----------------|----------------|
A||----------------|----------------|----------------|----------------|
E||----------------|----------------|----------------|----------------|


  H        Q       H        Q       H        Q       H        Q     
----------------|----------------|----------------|----------------|
----------------|----------------|----------------|----------------|
----------------|----------------|----------------|----------------|
----------------|----------------|----------------|----------------|
----------------|----------------|----------------|----------------|
----------------|----------------|----------------|----------------|


  E  E  H           H.              H.              H.            
-----------------|---------------|---------------|---------------|
-----------------|---------------|---------------|---------------|
--7--7--L--------|--L------------|--L------------|--L------------|
--9--9--L--------|--L------------|--L------------|--L------------|
--9--9--L--------|--L------------|--L------------|--L------------|
--7--7--L--------|--L------------|--L------------|--L------------|


  H.              H.              H.              H.              H.            
---------------|---------------|---------------|---------------|---------------|
---------------|---------------|---------------|---------------|---------------|
--6------------|--L------------|--6------------|--L------------|--6------------|
--7------------|--L------------|--7------------|--L------------|--7------------|
--7------------|--L------------|--7------------|--L------------|--7------------|
--5------------|--L------------|--5------------|--L------------|--5------------|


                                                                     PM PM  
  H.              E  E  H           H.              E  E  Q    E  E  E  E   
---------------|-----------------|---------------|-------------------------|
---------------|-----------------|---------------|--------3----3--2--------|
--L------------|--6--6--L--------|--L------------|--------2----2--2--------|
--L------------|--7--7--L--------|--L------------|--------4----4--2--------|
--L------------|--7--7--L--------|--L------------|-----0--0----0--0--0--0--|
--L------------|--5--5--L--------|--L------------|-------------------------|


  PM               PM PM                                  
  E  E  Q    E  E  E  E      H.             E      S   S  
-------------------------|--14b-------------Lpbr--14p-12-|
--------3----3--2--------|-------------------------------|
--------2----2--2--------|-------------------------------|
--------4----4--2--------|-------------------------------|
--0--0--0----0--0--0--0--|-------------------------------|
-------------------------|-------------------------------|


   H.             E   E      H          Q.         E   
--14~------------12--14--|--14b--------14pbr------12--|
-------------------------|----------------------------|
-------------------------|----------------------------|
-------------------------|----------------------------|
-------------------------|----------------------------|
-------------------------|----------------------------|


   E   Q.       H            H          Q.         E   
--14---------------------|--14b--------14pbr------12--|
------14b------12--------|----------------------------|
-------------------------|----------------------------|
-------------------------|----------------------------|
-------------------------|----------------------------|
-------------------------|----------------------------|


   E   Q.       Q      Q        H         E   S   S  E   E   
--14------------------------|-------------------------------|
------14b------14b----12----|--10---------L--12p-10p-9--10--|
----------------------------|-------------------------------|
----------------------------|-------------------------------|
----------------------------|-------------------------------|
----------------------------|-------------------------------|


   Q      Q.        E     E     E      E   E   H.               
-----------------------------------|---------------------------|
-----------------------------------|---------------------------|
--11b----11b~-------Lpb--11pbr--9--|--11b--9--11brb------------|
-----------------------------------|---------------------------|
-----------------------------------|---------------------------|
-----------------------------------|---------------------------|


                |---3---|                                            
  S  H          S   S   S  E    E.       E   E   Q.      E   E   E   
-------------------------------14b---|--14--------------14--16--17--|
---------------14h-17p-14------------|------17--17------------------|
----16b-------------------16b--------|------------------------------|
-------------------------------------|------------------------------|
-------------------------------------|------------------------------|
-------------------------------------|------------------------------|


   Q      E   Q      E   E   E      H          Q      E   E   
--16b-------------------16--17--|--17b--------19b----19--19--|
---------19--17~----19----------|----------------------------|
--------------------------------|----------------------------|
--------------------------------|----------------------------|
--------------------------------|----------------------------|
--------------------------------|----------------------------|


   H          H              E   E   E    E   H            
---L~--------19br--------|--19--17-------19---------------|
-------------------------|----------19b------19pbr--------|
-------------------------|--------------------------------|
-------------------------|--------------------------------|
-------------------------|--------------------------------|
-------------------------|--------------------------------|


   H          E    E   E   E         Q     E   E   Q     E  E   
------------------19--19--16--|--21g21----19------19----21-----|
--17~--------19b--------------|---------------21---------------|
------------------------------|--------------------------------|
------------------------------|--------------------------------|
------------------------------|--------------------------------|
------------------------------|--------------------------------|


   E    E    E    E    H              W                   W                 
--21b--21b--21b--21b--21brb--------|-------------------|-------------------|
-----------------------------------|-------------------|-------------------|
-----------------------------------|-------------------|-------------------|
-----------------------------------|-------------------|-------------------|
-----------------------------------|-------------------|-------------------|
-----------------------------------|--0----------------|--L----------------|


  W                   W                  
-------------------|-------------------||
-------------------|-------------------||
-------------------|-------------------||
-------------------|-------------------||
-------------------|-------------------||
--L----------------|--L----------------||




Duration Legend
---------------
W - whole
H - half
Q - quarter
E - 8th
S - 16th
T - 32nd
X - 64th
. - note dotted
|-n-|  - n-tuplets


Tablature Legend
----------------
L - tied note
x - dead note
g - grace note
(n) - ghost note
> - accentuded note
NH - natural harmonic
AH - artificial harmonic
TH - tapped harmonic
SH - semi harmonic
PH - pitch harmonic
h - hammer on
p - pull off
b - bend
br - bendRelease
pb - preBend
pbr - preBendRelease
brb - bendReleaseBend
\n/ - tremolo bar dip
\n - tremolo bar dive
-/n - tremolo bar Release up
/n\ - tremolo bar inverted dip
/n - tremolo bar return
-\n - tremolo bar Release down
S - shift slide
s - legato slide
/ -  slide into from below or out of upwards
\ -  slide into from above or out of downwards
~ - vibrato
W - wide vibrato
tr - trill
TP - tremolo picking
T - tapping
S - slap
P - pop
< - fade in
^ - brush up
v - brush down





Comments


Popular Journey tabs & chords
Separate Ways 2 Bass Tabs
The Partys Over Bass Tabs
Any Way You Want It Chords
Never Walk Away Chords
Open Arms 3 Chords
Wheel In The Sky 1 Chords
Dont Stop Believing 10 Tabs
Faith In The Heartland Tabs
Faithfully 3 Tabs
Me And You Love Tabs


Song lyrics



↑ Back to top | Tablatures and chords are parodies/interpretations of the original songs. You may use it for private study, scholarship, research or language learning purposes only
© 2014 AZChords.com Contact us | Privacy policy | DMCA | Add/correct tabs | Request tabs | Top 50 tabs