>
 >
Majestic

Majestic Bass Tabs

Journey - Majestic chords, tabs, tablatures, lyrics

Guitar lessons | Add/correct | Request | Top 50 tabs Artists:  A B C D E F G H I J K L M N O P Q R S T U V W X Y Z 0-9

Majestic Bass Tabs – Journey

CD, Sheet music, Poster

Do you like Majestic? Share with your friends now
Bass TabsTabsTabs v2
-----------------------------------------------------------------------------
		      Majestic - Journey (BASS)
                       
-----------------------------------------------------------------------------

Tuning: Standard

=============================================================================


Bass




G||-------|-------|-------|-------|-------|-------|-------|-------|
D||-------|-------|-------|-------|-------|-------|-------|-------|
A||-------|-------|-------|-------|-------|-------|-------|-------|
E||-------|-------|-------|-------|-------|-------|-------|-------|


  E  E  H           H.              H.              H.            
-----------------|---------------|---------------|---------------|
-----------------|---------------|---------------|---------------|
--2--2--L--------|--L------------|--L------------|--L------------|
-----------------|---------------|---------------|---------------|


  H.              H.              H.              H.              H.            
---------------|---------------|---------------|---------------|---------------|
---------------|---------------|---------------|---------------|---------------|
--0------------|--L------------|--0------------|--L------------|--0------------|
---------------|---------------|---------------|---------------|---------------|


  H.              E  E  H           H.                            
---------------|-----------------|---------------|-------|-------|
---------------|-----------------|---------------|-------|-------|
--L------------|--0--0--L--------|--L------------|-------|-------|
---------------|-----------------|---------------|-------|-------|


  W                   W                   H        Q    Q     
-------------------|-------------------|---------------------|
-------------------|-------------------|---------------------|
-------------------|--2----------------|----------------0----|
--0----------------|-------------------|--0--------4---------|


  W                   H        Q    Q       W                 
-------------------|---------------------|-------------------|
-------------------|---------------------|-------------------|
--2----------------|--7--------6----4----|--2----------------|
-------------------|---------------------|-------------------|


  W                   E  H.           E      W                 
-------------------|----------------------|-------------------|
-------------------|----------------------|-------------------|
-------------------|----------------------|-------------------|
--5----------------|--4--4------------L\--|--2----------------|


  E  H        Q.        W                   W                 
---------------------|-------------------|-------------------|
---------------------|-------------------|-------------------|
---------------------|-------------------|-------------------|
--2--2--------4------|--5----------------|--4----------------|


  W                   E  E  Q    E  Q.        W                 
-------------------|-----------------------|-------------------|
-------------------|-----------------------|-------------------|
-------------------|-----------------------|-------------------|
--2----------------|--2--2--2----2--4------|--5----------------|


  E  H.           E     W                   Q    Q    Q    Q     
---------------------|-------------------|----------------------|
---------------------|-------------------|----------------------|
---------------------|-------------------|----------------------|
--4--4------------5--|--2----------------|--2----4----5----4----|


  W                   W                   W                 
-------------------|-------------------|-------------------|
-------------------|-------------------|-------------------|
-------------------|-------------------|-------------------|
--0----------------|--L----------------|--L----------------|


-------------------||
-------------------||
-------------------||
-------------------||




Duration Legend
---------------
W - whole
H - half
Q - quarter
E - 8th
S - 16th
T - 32nd
X - 64th
. - note dotted
|-n-|  - n-tuplets


Tablature Legend
----------------
L - tied note
x - dead note
g - grace note
(n) - ghost note
> - accentuded note
NH - natural harmonic
AH - artificial harmonic
TH - tapped harmonic
SH - semi harmonic
PH - pitch harmonic
h - hammer on
p - pull off
b - bend
br - bendRelease
pb - preBend
pbr - preBendRelease
brb - bendReleaseBend
\n/ - tremolo bar dip
\n - tremolo bar dive
-/n - tremolo bar Release up
/n\ - tremolo bar inverted dip
/n - tremolo bar return
-\n - tremolo bar Release down
S - shift slide
s - legato slide
/ -  slide into from below or out of upwards
\ -  slide into from above or out of downwards
~ - vibrato
W - wide vibrato
tr - trill
TP - tremolo picking
T - tapping
S - slap
P - pop
< - fade in
^ - brush up
v - brush down





Comments


Popular Journey tabs & chords
Stay Awhile Bass Tabs
Ask The Lonely Tabs
Cloudy Days Tabs
Dont Stop Believing 1 Tabs
It's Just The Rain Tabs
Lights 2 Tabs
Open Arms 2 Tabs
Any Way You Want It Ukulele
Never Walk Away Ukulele
Why Cant This Night Go On Forever Ukulele


Song lyrics



↑ Back to top | Tablatures and chords are parodies/interpretations of the original songs. You may use it for private study, scholarship, research or language learning purposes only
© 2014 AZChords.com Contact us | Privacy policy | DMCA | Add/correct tabs | Request tabs | Top 50 tabs