>
 >
Lovin, Touchin, Squeezin

Lovin, Touchin, Squeezin Guitar Tabs

Journey - Lovin, Touchin, Squeezin chords, tabs, tablatures, lyrics

Guitar lessons | Add/correct | Request | Top 50 tabs Artists:  A B C D E F G H I J K L M N O P Q R S T U V W X Y Z 0-9

Lovin, Touchin, Squeezin Guitar Tabs – Journey

CD, Sheet music, Poster

Do you like Lovin, Touchin, Squeezin? Share with your friends now
Bass TabsChordsTabs
Journey - Lovin' Touchin' Squeezin'


Here's my tab for a classic track by a classic band. The outro solo was hard
to make out so it's a rough guess but you can improvise a lot of it. 

Tab Explanation

s	Slide
h	Hammer-on
p	Pull-off
T	Tap
B	Bend the note to the fret after the B
R	Release back to the originally bent note
H	Harmonic
A.H.	Artificial Harmonic
m	Palm Muted
//	Trem Pick (Pick as fast as possible)

Gtr. 1 - Slightly Distorted Electric
Gtr. 2 - Distorted Electric
Intro
   H H H H		   m
e|--------------------------------------|
B|--------------------1b2---------------|
G|-----7-5~~-2-----2~-2b3----2-0~-------|
D|---7-------0-----2~-------------0-----|
A|-7-----------0-3-0~------0--------3b4-|
E|--------------------------------------|

Verse
You make me weak and wanna die
Just then, you said we'd try
e|------------------------------------------------------|
B|------------------------------------------------------|
G|-2~~-------2--2-2--2-2--2---2-4-2--2-2--2-2--2----2---|
D|-2~~-2-4-6-0--0-0--0-0--0-4-----0--0-0--0-0--0--4---2-|
A|-0~~-0-2-4--------------------------------------------|
E|------------------------------------------------------|
Lovin' touchin' squeezin' each other
e|------------------------------------------5p3p0-3----|
B|------------------------------------------3-----3----|
G|-2--2-2s4-2------2s4------------------------------2~-|
D|-2--2-2s4-2-2--2-2s4-2-5-5--5-5--5-5s7-7~---------2~-|
A|-0--0-------2--2-0---2-5-5--5-5--5-5s7-7~---------0~-|
E|------------0--0-----0-3-3--3-3--3-3s5-5~------------|

Verse
When I'm alone
All by myself
You're out with someone else
e|-------------------------------------------------------|
B|-------------------------------------------------------|
G|-(2)-2---4-2~--------------2--2-2--2-2--2---2-4-2--2-2-|
D|-(2)-2---4-2~-2-2--2-------0--0-0--0-0--0-4-0---0--0-0-|
A|-(0)---0---0~-0-0--0-0-2-4-----------------------------|
E|-------------------------------------------------------|
Lovin' touchin' squeezin' each other
e|-------3-2--------------------------------------------------------|
B|-------3-3-3------------------------------------------------------|
G|-2-2-------2------2s4-2------2s4----------------------------------|
D|-0---4-------2--2-2s4-2-2----2s4-2-5--5-5--5-5--5-5--5-5s7~-7-6-5-|
A|-------------0--0-0---0-2--2-----2-5--5-5--5-5--5-5--5-5s7~-7-6-5-|
E|------------------------0--0-----0-3--3-3--3-3--3-3--3-3s5~-5-4-3-|

Bridge
You're tearing me apart
Every every day
You're tearing me apart
Oh what can I say
You're tearing me apart
e|----------------------------------------|
B|----------------------------------------|
G|----------------------------------------| x2
D|-4--4-4~-4--4-4--5-7--7-7--7-7--7-7-6-5-|
A|-4--4-4~-4--4-4--5-7--7-7--7-7--7-7-6-5-|
E|-2--2-2~-2--2-2--3-5--5-5--5-5--5-5-4-3-|

e|-----------------------------------------------------------|
B|-----------------------------------------------------------|
G|-----------------------------------------------------2-----|
D|-4--4-4~-4--4-4--5-5-5-5-5-5-5-5-5-5~-2-2-2-2-2-2-2--0-----|
A|-4--4-4~-4--4-4--5-5-5-5-5-5-5-5-5-5~-2-2-2-2-2-2-2----0-3-|
E|-2--2-2~-2--2-2--3-3-3-3-3-3-3-3-3-3~-0-0-0-0-0-0-0--------|

Verse
It won't be long, yes
Til you're alone and your lover
Oh, he hasn't been home
e|-------------------------------------------------------|
B|-------------------------------------------------------|
G|-(2)-2---4-2~--------------2--2-2--2-2--2---2-4-2--2-2-|
D|-(2)-2---4-2~-2-2--2-------0--0-0--0-0--0-4-0---0--0-0-|
A|-(0)---0---0~-0-0--0-0-2-4-----------------------------|
E|-------------------------------------------------------|
Cos he's lovin', ooh he's touchin', he's squeezin' another
e|-------3-2--------------------------------------------------------|
B|-------3-3-3------------------------------------------------------|
G|-2-2-------2------2s4-2------2s4----------------------------------|
D|-0---4-------2--2-2s4-2-2----2s4-2-5--5-5--5-5--5-5--5-5s7~-7-6-5-|
A|-------------0--0-0---0-2--2-----2-5--5-5--5-5--5-5--5-5s7~-7-6-5-|
E|------------------------0--0-----0-3--3-3--3-3--3-3--3-3s5~-5-4-3-|

Bridge
He's tearing you apart
Ooh, every every day
He's tearing you apart
Oh girl what can you say
e|----------------------------------------|
B|----------------------------------------|
G|----------------------------------------|
D|-4--4-4~-4--4-4--5-7--7-7--7-7--7-7-6-5-|
A|-4--4-4~-4--4-4--5-7--7-7--7-7--7-7-6-5-|
E|-2--2-2~-2--2-2--3-5--5-5--5-5--5-5-4-3-|
Cos he's lovin', touchin' another
Now it's your turn girl to cry
e|----------------------------------------------------|
B|----------------------------------------------------|
G|----------------------------------------------------|
D|-4--4--4~-5--5--5~--7--7-7--7-7--7-7-6-5-4--4--4--5-|
A|-4--4--4~-5--5--5~--7--7-7--7-7--7-7-6-5-4--4--4--5-|
E|-2--2--2~-3--3--3~--5--5-5--5-5--5-5-4-3-2--2--2--3-|

Outro
Nah nah nah nah ....

e|----------------------------0---|
B|-------------------------3~---3-|
G|-2~-----2~-----2~-----2~-0~-----| Gtr. 1
D|-2~-2-4-2~-2-4-2~-2-4-4~-0~-----|
A|-0~-0-0-0~-0-0-0~-0-0-4~-2~-----|
E|----------------------2~-3~-----|

e|-------------------------------------------|
B|----------------------------------------3~-|
G|-2~-2222222-2~-2222222----2~-2222222-2~-0~-| Gtr. 1
D|-2~-xxxxxxx-2~-xxxxxxx2-4-2~-xxxxxxx-4~-0~-|
A|-0~-0000000-0~-00000000-0-0~-0000000-4~-2~-|
E|-------------------------------------2~-3~-|

   |-----x6------|
e|--------------------------------|
B|----------------2-2-2-2s3-3-3-3-|
G|-2~-2222222-----2-2-2-2s4-4-4-4-| Gtr. 1 (repeat to end)
D|-2~-xxxxxxx-4-2-4-4-4-4s5-5-5-5-|
A|-0~-0000000-0-0-4-4-4-4s5-5-5-5-|
E|----------------2-2-2-2s3-3-3-3-|

Gtr. 2
e|------------------------------------------10-----------------------|
B|------10----10----10----10----10----10----12b14r12b14p10-10p8-10p8-|
G|-5s12-12b14-12b14-12b14-12b14-12b14-12b14--------------------------|
D|-------------------------------------------------------------------|
A|-------------------------------------------------------------------|
E|-------------------------------------------------------------------|
				 A.H				  A.H
e|------|------------------------------------------------------------|
B|------|-------------------------------------5b7-5------------------|
G|-9s7~-|-2~-4b5-4b5-4-2~----4b5-4b5-4-0-2~-0-------4b6-2~-4b5-4-2-4-|
D|------|-2~---------------------------------------------------------|
A|------|-0~--------------0~-----------------------------------------|
E|------|------------------------------------------------------------|

e|--------|-----------------------------------------------------|
B|--------|-10----10----10--------------------------------------|
G|--------|-12b14-12b14-12b14-12b14r12-9-12-9-12-9-(12)b14r12p9-|
D|-4-2-0~-|-----------------------------------------------------|
A|--------|-----------------------------------------------------|
E|--------|-----------------------------------------------------|

e|------------------------------------------------------------------|
B|------------------------------------------------------------------|
G|-(12)b14r12p9-(12)b14r12p9-(12)b14r12p9-(12)b14r12p9-(12)b14r12p9-|
D|------------------------------------------------------------------|
A|------------------------------------------------------------------|
E|------------------------------------------------------------------|

e|----------------------------------------------------------|-------|
B|----------------------------------------------------------|-10----|
G|-(12)b14r12p9-(12)b14r12p9--------------------------------|-12b14-|
D|---------------------------12-10----12-10----------10-12~-|-------|
A|---------------------------------12-------12-10-12--------|-------|
E|----------------------------------------------------------|-------|

e|--------------------------------------------------|
B|-(10)-10-10-10----10-10--------10----10-10--------|
G|-(14)-14-14-12b14-14-14--------12b14-14-14--------|
D|------------------------10-----------------10-----|
A|---------------------------12~----------------12~-|
E|--------------------------------------------------|





Comments


Popular Journey tabs & chords
Any Way You Want It 2 Bass Tabs
Lovin, Touchin, Squeezin Bass Tabs
Wheel In The Sky 2 Bass Tabs
Whos Crying Now 2 Bass Tabs
Dont Stop Believing 4 Tabs
Faithfully 2 Tabs
Signs Of Life 1 Tabs
After All These Years Ukulele
Oh Sherrie Ukulele
Why Cant This Night Go On Forever Ukulele


Song lyrics



↑ Back to top | Tablatures and chords are parodies/interpretations of the original songs. You may use it for private study, scholarship, research or language learning purposes only
© 2014 AZChords.com Contact us | Privacy policy | DMCA | Add/correct tabs | Request tabs | Top 50 tabs