>
 >
Higher Place

Higher Place Guitar Tabs

Journey - Higher Place chords, tabs, tablatures, lyrics

Guitar lessons | Add/correct | Request | Top 50 tabs Artists:  A B C D E F G H I J K L M N O P Q R S T U V W X Y Z 0-9

Higher Place Guitar Tabs – Journey

CD, Sheet music, Poster

Do you like Higher Place? Share with your friends now
TabsTabs v2
Journey - Higher Place


Gtr. 1 - Clean Electric
Gtr. 2 - Distorted Electric
Gtr. 3 - Distorted Electric (w/dropped D tuning (DADGBe)
Gtr. 4 - Distorted Electric

Tab Explanation

s	Slide
h	Hammer-on
p	Pull-off
T	Tap
B	Bend the note to the fret after the B
R	Release back to the originally bent note
A.H.	Artificial Harmonic
m	Palm Muted
//	Trem Pick (Pick as fast as possible)


Fig. 1
e|---------------1-0-------------------3s5-5-|
B|-----3~-----1~-----1-------3~-----1~-1s3-3-|
G|---2------3----------3---2------3----------|
D|-0------0--------------0------0------------|
A|-------------------------------------------|
E|-------------------------------------------|

Fig. 2
e|---------------1-0-------------------|
B|-----3~-----1~-----1-------3~-----1~-|
G|---2------3----------3---2------3----|
D|-0------0--------------0------0------|
A|-------------------------------------|
E|-------------------------------------|

Fig. 1 then Fig. 2 then Fig. 1 (x2)

  Gtr. 2
e|-------------------------------------------------------|
B|-------------------------------------------------------|
G|-9------------------9----9-----7-6-7-----6-------------|
D|-9------------------9----9-----------9-9---7-6h7p6-----|
A|-7------------------7----7-------------------------9-7-|
E|-------------------------------------------------------|
 |Gtr. 3
e|-------------------------------------------------------|
B|-------------------------------------------------------|
G|-------------------------------------------------------|
D|-2-----------------2-----2-----------------------------|
A|-2-----------------2-----2-----5-4-5-2-2-4-0-----------|
E|---0-0-0-0-0-0-0-0---0-0---0-0---------------6h7p6-4-2-|

Verse 1 (All open D's are palm muted)
			   So I think I got it all in place now
e|-------1-------1-------0-|---------------------------------|
B|-----1-------1-------1---|---------------------------------|
G|---3-------2-------0-----|---------------------------------|
D|-0-------0-------0-------|-0-0-0-0-0-0-0-0-0-0-0-0-0-0-0-0-|
A|-------------------------|---------------------------------|
E|-------------------------|---------------------------------|

			   No distractions under control
e|-------3-------3-------2-|---------------------------------|
B|-----3-------3-------5---|---------------------------------|
G|---5-------4-------2-----|---------------------------------|
D|-0-------0-------0-------|-0-0-0-0-0-0-0-0-0-0-0-0-0-0-0-0-|
A|-------------------------|---------------------------------|
E|-------------------------|---------------------------------|

			   Yet there's something missing inside me
e|-------1-------1-------0-|---------------------------------|
B|-----1-------1-------1---|---------------------------------|
G|---3-------2-------0-----|---------------------------------|
D|-0-------0-------0-------|-0-0-0-0-0-0-0-0-0-0-0-0-0-0-0-0-|
A|-------------------------|---------------------------------|
E|-------------------------|---------------------------------|

			   I'm chasing shadows of myself
e|-------3-------3-------2-|---------------------------------|
B|-----3-------3-------5---|---------------------------------|
G|---5-------4-------2-----|---------------------------------|
D|-0-------0-------0-------|-0-0-0-0-0-0-0-0-0-0-0-0-0-0-0-0-|
A|-------------------------|---------------------------------|
E|-------------------------|---------------------------------|
	   And the clocks are ticking    My world is spinning
e|-------1-------1-------0-------------3-------3-------2-------|
B|-----1-------1-------1-------------3-------3-------5---------|
G|---3-------2-------0-------------5-------4-------2-----------|
D|-0-------0-------0-------0-0-0-0-------0-------0-------0-0-0-|
A|-------------------------------------------------------------|
E|-------------------------------------------------------------|
	   Spinning 'round and 'round and 'round and 'round again
e|-------1-------1-------0-------3-------3-------2---2~-|
B|-----1-------1-------1-------3-------3-------5---5----|
G|---3-------2-------0-------5-------4-------2----------|
D|-0-------0-------0-------0-------0-------0------------|
A|------------------------------------------------------|
E|------------------------------------------------------|

Chorus
  Gtr. 1
e|-8-----8-----8-----8-----8-------|-8-----8-----8-----8-----8-------|
B|---6-----6-----6-----6-----6---6-|---6-----6-----6-----6-----6---6-|
G|-----5-----5-----5-----5-----5---|-----5-----5-----5-----5-----5---|
D|---------------------------------|---------------------------------|
A|---------------------------------|---------------------------------|
E|---------------------------------|---------------------------------|
 |Gtr. 2
e|---------------------------------|---------------------------------|
B|---------------------------------|---------------------------------|
G|-10----------------10----10----10|-------------------10----10----5-|
D|-10----------------10----10----10|-------------------10----10----6-|
A|-8-----------------8-----8-----8-|-------------------8-----8-----6-|
E|---------------------------------|---------------------------------|
 |Gtr. 3
e|---------------------------------|---------------------------------|
B|---------------------------------|---------------------------------|
G|---------------------------------|---------------------------------|
D|---------------------------------|---------------------------------|
A|---------------------------------|-------------------------------5-|
E|-3-3-3-3-3-3-3-3-3-2-0-3-3-3-3-3-|-3-3-3-3-3-3-3-3-3-2-0-3-3-3-5---|

  Gtr. 1
e|-8-----8-----8-----8-----8-------|-8-----8-----8-------------|
B|---6-----6-----6-----6-----6---6-|---6-----6-----8~----------|
G|-----7-----7-----7-----7-----7---|---------------------------|
D|---------------------------------|-----8-----8---------------|
A|---------------------------------|---------------------------|
E|---------------------------------|---------------------------|
 |Gtr. 2
e|---------------------------------|---------------------------|
B|-------------------5---5-------3~|-----------5~--------------|
G|-------------------6---6-------3~|-----------5~--------------|
D|-------------------6---6-------3~|-----------5~--------------|
A|-------------------------------1~|-----------3~--------------|
E|---------------------------------|---------------------------|
 |Gtr. 3
e|---------------------------------|---------------------------|
B|---------------------------------|---------------------------|
G|---------------------------------|---------------------------|
D|-----------------------------3---|---------------3-2-0-3-2---|
A|-5-5-5-5-5-5-5-5-5-5-5-5-5-5---1-|-1-1-1-1-1-3-3-----------3-|
E|---------------------------------|---------------------------|

Bridge
  Gtr. 4
e|---------------------------------------------|
B|-15b17~~-15-14-15-------14-------------------|
G|------------------16-16----14-13h14p13-------|
D|---------------------------------------16-14-|
A|---------------------------------------------|
E|---------------------------------------------|

	 \1/\1/\1/\1/\1/\1/
e|--------------------------------------------------------------|
B|-15b17~~~~~~~~~~~~~~~~~~-15-14-15-------14--------------------|
G|----------------------------------16-16----14-13h14p13--------|
D|-------------------------------------------------------16-14--|
A|--------------------------------------------------------------|
E|--------------------------------------------------------------|

Verse

Chorus

Interlude
e|-5-----------------5-----5-----5-|-------------------5-----5-----5-|
B|-6-----------------6-----6-----6-|-------------------6-----6-----6-|
G|-5-----------------5-----5-----5-|-------------------5-----5-----7-|
D|---------------------------------|-----------------------------0---|
A|---0-0-0-0-0-0-0-0---0-0---0-----|---------------------------------|
E|-----------------------------6---|---6-6-6-6-6-6-6-6---6-6---6-----|
 |						  A.H
e|---------------------------------|---------------------------------|
B|---------------------------------|---------------------------------|
G|---------------------------------|---------------------------------|
D|---------------------------------|---3-2---2---2-3-----------------|
A|---------------------------------|-------3---3---------------------|
E|---------------------------------|---------------------------------|

e|-------------------5-----5-----5-|---5---5---5---3---3---3---3---5-|
B|-------------------6-----6-----6-|---6---6---6---5---5---5---5---6-|
G|-------------------7-----7-----5-|---5---5---5---5---5---5---5---5-|
D|---0-0-0-0-0-0-0-0---0-0---0-0---|---------------------------------|
A|---------------------------------|---------------------------------|
E|---------------------------------|---------------------------------|
 |						     A.H-------------|
e|---------------------------------|---------------------------------|
B|---------------------------------|---------------------------------|
G|---------------------------------|---------------------------------|
D|---------------------------------|-------------------5-3---3-------|
A|---------------------------------|-----------------------5---5-3-0-|
E|---------------------------------|---------------------------------|


				   |-----------------x2-----------------|
e|---------------------------------|------------------------------------|
B|---------------------------------|------------------------------------|
G|-8-----8-------------------------|-10-----10--------------------------|
D|-8-----8-----8-------------------|-10-----10-----10-------------------|
A|-6-6-6-6-6-6-8-------------------|--8-8-8--8-8-8-10-------------------|
E|-------------6-6-6-6-6-6-6-6-6-6-|----------------8-8-8-8-8-8-8-8-8-8-|

Guitar Solo (Gtr. 4)
e|-------14~-17p14~-14-----------------------------|A.H |-------------|
B|-15h17---------------15--------12----------------15b17~-FILL--------|
G|------------------------14~-13----13-13-----------------------------|
D|----------------------------------------14-14-12-12b14~r12-11b12r11-|
A|--------------------------------------------------------------------|
E|--------------------------------------------------------------------|

e|----------------------------------------------------------14~s16b17~-|
B|----------------------------------------------12----12h15------------|
G|----------------------------------------11h14----14------------------|
D|-------11h12p11-------12----------12h14------------------------------|
A|-12h14----------12h14----12h14p12------------------------------------|
E|---------------------------------------------------------------------|

e|-14----14-------17b19r17p14-17p16p14-------------------------------------|
B|----17----17b19----------------------17s19----17-------------------------|
G|-------------------------------------------18----18-18p16-------------16-|
D|----------------------------------------------------------16----16h19----|
A|------------------------------------------------------------19~----------|
E|-------------------------------------------------------------------------|

e|----------------------16-19b21-17-16-19-19-17-19s21b22r21~-19-22b24~b25~-|
B|----------17h19----19----------------------------------------------------|
G|----16h18-------18-------------------------------------------------------|
D|-19----------------------------------------------------------------------|
A|-------------------------------------------------------------------------|
E|-------------------------------------------------------------------------|

Chorus

Outro Solo (Gtr. 4 - with chorus in background)
e|-----------------------------17----20~-20-18-17----17b18r17--------|
B|-----------------18----20-18----18--------------20----------20-18~-|
G|-------16h17~-17----17---------------------------------------------|
D|-17h19-------------------------------------------------------------|
A|-------------------------------------------------------------------|
E|-------------------------------------------------------------------|

e|--------------------17b18r17-----------------17~-17--------------17~-|
B|-18-20--------18-20----------20-18-20~-18h20--------18-----18h20-----|
G|-------17~-17------------------------------------------17~-----------|
D|---------------------------------------------------------------------|
A|---------------------------------------------------------------------|
E|---------------------------------------------------------------------|

e|-20p17~-20p18p17----------------20p18p17-20p18p17-----------------|
B|-----------------20p18p17-------------------------20p18p17--------|
G|--------------------------19p17----------------------------19p17~-|
D|------------------------------------------------------------------|
A|------------------------------------------------------------------|
E|------------------------------------------------------------------|

e|-------------20-18p17-------17--------------------------------------|
B|-------20-18----------18s20----18h20-18-----------------------------|
G|-17h19----------------------------------19p17p16--------------------|
D|-------------------------------------------------19p17p15-----------|
A|----------------------------------------------------------19p17p15~-|
E|--------------------------------------------------------------------|

e|----------------------------------------------18p17-----|
B|------------------------------------------18~-------18~-|
G|----------------14h15h17b19~-17~-14h15p14---------------|
D|-------13h15h17-----------------------------------------|
A|-15h17--------------------------------------------------|
E|--------------------------------------------------------|





Comments


Popular Journey tabs & chords
Never Walk Away Bass Tabs
Dont Stop Believing 10 Chords
Dont Stop Believing 4 Chords
Dont Stop Believing 8 Chords
Faithfully 5 Chords
Faithfully 3 Tabs
It Could Have Been You Tabs
Majestic 1 Tabs
Stone In Love Tabs
The Eyes Of A Woman Ukulele


Song lyrics



↑ Back to top | Tablatures and chords are parodies/interpretations of the original songs. You may use it for private study, scholarship, research or language learning purposes only
© 2014 AZChords.com Contact us | Privacy policy | DMCA | Add/correct tabs | Request tabs | Top 50 tabs