>
 >
Faithfully 3

Faithfully 3 Guitar Tabs

Journey - Faithfully 3 chords, tabs, tablatures, lyrics

Guitar lessons | Add/correct | Request | Top 50 tabs Artists:  A B C D E F G H I J K L M N O P Q R S T U V W X Y Z 0-9

Faithfully 3 Guitar Tabs – Journey

CD, Sheet music, Poster

Do you like Faithfully 3? Share with your friends now
ChordsChords v2Chords v3Chords v4Chords v5Chords v6Chords v7Chords v8Chords v9TabsTabs v2Tabs v3Tabs v4Tabs v5Tabs v6Tabs v7Ukulele
#--interpretation of the song. You may only use this file---#
#-----for private study, scholarship, or research!----------#

Song Title:      Faithfully
Tempo:           64
Last edit:       July 8, 2004
Parts:           Verses, Chorus, Chorus Outra, Solo, Part Order & Chord Explanation
Missing:        N/A
Other tabs made by me:
                       The Ballad of Curtis Lowe    Lynyrd Skynyrd
                       Separate Ways                Jounrney
Tuning:         Standard Tuning - EBGDAe
Notes:          The solo is correct, to get the timing and all of the     bends/pull 
You'll have to listen to the song.

Verse 1

        Highway [D]run [Dadd9] [Dsus4] [D]
       Into the [Bm]midnight sun
       [G]Wheels go round and round you're on my [D]mind
       Restless [D]hearts [Dadd9] [Dsus4] [D]
       Sleep [Bm]alone through the night
       Se[G]nding all my love
       Along the [D]wi[A]re
Chorus

       They [G]say that the road ain't no [Bm]
       place to start a [D]family [Dsus4][D]
       Right[G] down the [Bm] line its been you and [D]me
       And [G]loving a music man  ain't [Bm] always what its supposed to [D]be
       Oh [A] girl [A?]stand by [A]me
       I'm [Em]forever [G]yours  [D]faithfully

 Outra Chorus

e||--------7----2----0------------0--2---|
B||--------------------------4-----------|
G||--------------------------------------|
D||--------------------------------------|
A||--------------------------------------|
E||--------------------------------------|

e||--------7----2----0------------0--2---|
B||--------------------------4-----------|
G||--------------------------------------|
D||--------------------------------------|
A||--------------------------------------|
E||--------------------------------------|

e||--------7----2----0------------0--2---7---0-|
B||--------------------------4-----------------|
G||--------------------------------------------|
D||--------------------------------------------|
A||--------------------------------------------|
E||--------------------------------------------|

Verse 2

       Circus [D]life [Dadd9] [Dsus4] [D]
       Under the [Bm]bigtop world
       [G]We all need the clowns to make us [D]smile
       Through space and [D]time [Dadd9] [Dsus4] [D]
       Always [Bm]another show
       Wo[G]ndering where I am
       Lost without[D]yo[A]u
Chorus 2

       Being[G]apart aint easy [Bm]
       on this[D]love affair [Dsus4] [D]
       Two[G] stranger learn[Bm] to fall in love[D]again
       I get the [G]joy of redic [Bm]overing [D] you
       Oh [A] girl [A?]stand by [A]me
       I'm [Em]forever [G]yours  [D]faithfully

Solo

|-11----9------------9--7-----11---9---------9--7---11----9---------9--7--|
|-------------16-----------------------16--------------------16-----------|
|-------------------------------------------------------------------------|
|-------------------------------------------------------------------------|
|-------------------------------------------------------------------------|
|-------------------------------------------------------------------------|

|---16--16----18--19--19--19----18--------14----14---12--11---12---12|
|-------------------------------------21-----------------------------|
|--------------------------------------------------------------------|
|--------------------------------------------------------------------|
|--------------------------------------------------------------------|
|--------------------------------------------------------------------|

|-----14----12--11-----12----12-----------12--------9----11---|
|----------------------------------------------16-------------|
|-------------------------------------------------------------|
|-------------------------------------------------------------|
|-------------------------------------------------------------|
|-------------------------------------------------------------|

|-----12---11-------12--11---9-----7---6-4-----7---6--------------------|
|-------------14---------------12----------7-------------7--4----4------|
|----------------16---------------------------------------6----------4--|
|-------------------------------------------------------------11--------|
|-----------------------------------------------------------------------|
|-----------------------------------------------------------------------|

|----------2-----7---10-9------10-9---10-9------10-9-------|
|-------4------------------12--------12------12------12----|
|----------------------------------------------------------|
|----11----------------------------------------------------|
|----------------------------------------------------------|
|----------------------------------------------------------|

|--14---19---14----18----14----19---14-----18--|
|----------------------------------------------|
|----------------------------------------------|
|----------------------------------------------|
|----------------------------------------------|
|----------------------------------------------|

|--14---19---14----18----14----19---14-----18--|
|----------------------------------------------|
|----------------------------------------------|
|----------------------------------------------|
|----------------------------------------------|
|----------------------------------------------|


|--14---19---14----18----14----19---14-----18--|
|----------------------------------------------|
|----------------------------------------------|
|----------------------------------------------|
|----------------------------------------------|
|----------------------------------------------|


|--14----19--14-----18---14-----19-------21----19---|
|------------------------------------19-------------|
|---------------------------------------------------|
|---------------------------------------------------|
|---------------------------------------------------|
|---------------------------------------------------|

|-----16----19----16----19-----------19--|
|----------------------------21----------|
|----------------------------------------|
|----------------------------------------|
|----------------------------------------|
|----------------------------------------|

|--16-19-------16----14-----11---9------11-----------11-----9--|
|---------19-------------14---------12------14-----------------|
|-----------------------------------------------16-------------|
|--------------------------------------------------------------|
|--------------------------------------------------------------|
|--------------------------------------------------------------|

|------12---------9---7------4---||
|---16-------16------------------||
|--------------------------------||
|--------------------------------||
|--------------------------------||
|--------------------------------||

End

Part Order:  Verse - Chorus - Outra Chorus - Verse - Chorus - Outra Chorus - Solo

I always include how you play the chords for those people who don't have a chord chart.

     Play the [Bm]as  E A D G B e     Play the [D]as E A D G B e
                      x x o 4 3 2                    x x 0 2 3 2

     Play the [A?]as  E A D G B e Play the [Dsus4]as E A D G B e
                      x x 2 2 2 5                    x x 0 2 3 3

   Play the [Dadd9]as E A D G B e     Play the [A]as  E A D G B e
                      x x 2 2 3 2                     x 0 2 2 2 0

       Play the [G]as E A D G B e
                      3 2 0 0 0 3





Comments


Popular Journey tabs & chords
Dont Stop Believing 1 Bass Tabs
Majestic Bass Tabs
Open Arms Chords
The Eyes Of A Woman Chords
Any Way You Want It Tabs
It's Just The Rain Tabs
Majestic 1 Tabs
Never Walk Away Tabs
Only The Young Intro Tabs
Patiently Tabs


Song lyrics



↑ Back to top | Tablatures and chords are parodies/interpretations of the original songs. You may use it for private study, scholarship, research or language learning purposes only
© 2014 AZChords.com Contact us | Privacy policy | DMCA | Add/correct tabs | Request tabs | Top 50 tabs