» » »

Journey, Faithfully Tabs (ver.4)

Artists:  A B C D E F G H I J K L M N O P Q R S T U V W X Y Z # 

Faithfully Tabs (ver.4)

Journey Tabs
 Rating:
4.4/5 (7 votes)
Faithfully lessons Tabs too difficult? Try these video lessons and learn fast
1
                journey
Faithfully
By Res Sollestre
I dedicate this tab
to other who spent their
time making tabs for others.
who had a apassions playing instruments.......Thanks!

/ slide up
\ slide down
h hammer on
full full up/bend
half half full up/bend
r release full up/bend


using guitar insted of piano

Intro
         B                           F#
E------------------------------------------------------|
B-4-----2----5-----4-------2h4---4-----------5---------|
G---4-----4------4--------------------4----6------4----|
D------------------------------------------------------|
A-2-------------------------2--------------------------|
E-----------------------------------4------------------|

          E             B
E-------------------------2-----------------------------|
B---0-----0------------4--------------------------------|
G------1-----1-------4----------------------------------|
D--------------------4----------------------------------|
A-------------------2-----------------------------------|
E--0----------------------------------------------------|


        B
Highway run


        Abm
       Into       the      midnight        sun
E-----------------------------------------------------|
B-----------------------7-----------------------------|
G-----------------------------------------------------|
D-----------------------------------------------------|
A-----------------------------------------------------|
E-----------------------------------------------------|


 E
Wheels go 'round and 'round


              B
You're on my mind
E-----------------------------------------------------|
B-----------------------------------------------------|
G--------8--------------------------------------------|
D-----------------------9/11---11\9-------------------|
A-----------------------------------------------------|
E-----------------------------------------------------|

 B
Restless hearts


        Abm
Sleep alone tonight


 E
Sendin' all my love


          B  F#
Along the wire



Pre-chorus:


      E                Abm                       B
They say that the road ain't no place to start a family

E------------------------------------------------------|
B---41\12----------------------------------------------|
G---------------13\11----------------------------------|
D----------------------------9\8-----------------------|
A------------------------------------------------------|
E------------------------------------------------------|



 E                    Abm                    B
Right down the line it's been you and me

E-----------------------------------------------------|
B-----------------------------------------------------|
G-----------------------------------------------------|
D---9h11-11/13\11-------------------------------------|
A-------------------------11\9------------------------|
E-----------------------------------------------------|



 E                Abm                                 B
And lovin a music man ain't always what it's supposed to be



Chorus:


  F#           Ebm   F#
Oh girl, you stand by me


       C#m            Eb/E pause
I'm forever your'rs.... faithfully



Outro:

E-----------------------------------------------------|
B--12--------------------------12---------------------|
G------11--9----------8h9--11------11--9------8h9--11-|
D-----------------------------------------------------|
A-----------------------------------------------------|
E-----------------------------------------------------|

E--------------------------7--------------------------|
B--12--------------------7-------9-ring---------------|
G------11--9--------8h9----------9-ring---------------|
D-----------------------------------------------------|
A-----------------------------------------------------|
E-----------------------------------------------------|


B
Circus life

E-----------------------------------------------------|
B----------14b----------------------------------------|
G-----------------------------------------------------|
D-----------------------------------------------------|
A-----------------------------------------------------|
E-----------------------------------------------------|
 Abm
Under the big-top world

E
We all need the clowns

                    B
To make us smile

E------11--------9--------------------------------------|
B-------------------12---9\7-----9----------------------|
G--/11-----------------------------7-------9\8--6\4--6b-|
D-------------------------------------------------------|
A-------------------------------------------------------|
E-------------------------------------------------------|


    B
Through space and time

 Abm
always another show

E
wondering where i am

               B   F#
lost without you

E                      F#m                        B
being apart aint easy on this love affair

E-----------------------------------------------------|
B--9---7---6h76---4-----------------------------------|
G--------------------------6------4-------------------|
D-----------------------------------------------------|
A-----------------------------------------------------|
E-----------------------------------------------------|

E                     F#m                        B
two strangers learn to fall in love again


E----------7--9b--7h97------7-------------------------|
B----7--9----------------9-------9\-------------------|
G-----------------------------------------------------|
D-----------------------------------------------------|
A-----------------------------------------------------|
E-----------------------------------------------------|

E            F#m                         B
i get the joy of rediscovering you

 F#              Ebm            F#
Oh girl you stand by me

C#m                    Eb/E pause
i'm forever you'rs.......faithfully


E-----------------------------------------------------|
B--12----------------------12-------------------------|
G------11--9--8h9--11------11--9--8h9--11-------------|
D-----------------------------------------------------|
A-----------------------------------------------------|
E-----------------------------------------------------|

E-------------------------7---------------------------|
B--12------------------7-------9-ring-----------------|
G------11---8------8h9---------9-ring-----------------|
D-----------------------------------------------------|
A-----------------------------------------------------|
E-----------------------------------------------------|

    B
  Oh....................
    Abm
 Oh.....................
     F#
  Oh...................
    E                  B
  Oh..................

Solo
E-----------------------------------------------------|
B-16ring------------------------------------12--------|
G-----------------------------------------------------|
D-----------------------------------------------------|
A-----------------------------------------------------|
E-----------------------------------------------------|



                                           faithfully

E------------------------------------------------------|
B---14half---14----14full--14full----12----------------|
G------------------------------------------------------|
D------------------------------------------------------|
A------------------------------------------------------|
E------------------------------------------------------|

                                               i'm still you'rs
E------------------------------------------------------|
B---14half---14----14full--14full----12----------------|
G------------------------------------------------------|
D------------------------------------------------------|
A------------------------------------------------------|
E------------------------------------------------------|


E------------------------------------------------------|
B---14half---14----14full--14full----12----------------|
G------------------------------------------------------|
D------------------------------------------------------|
A------------------------------------------------------|
E------------------------------------------------------|

E-----------16------18----19----18b--------16---------|
B---12------------------------------------------------|
G-----------------------------------------------------|
D-----------------------------------------------------|
A-----------------------------------------------------|
E-----------------------------------------------------|


E-----------------------------------------------------|
B---19---17--16--17--17full-17full--------------------|
G-----------------------------------------------------|
D-----------------------------------------------------|
A-----------------------------------------------------|
E-----------------------------------------------------|


E-----------------------------------------------------|
B-17full---17--16--17--17full--17full-----------------|
G-----------------------------------------------------|
D-----------------------------------------------------|
A-----------------------------------------------------|
E-----------------------------------------------------|



E-----------------------------------------------------|
B--17full--17--16--17--16--14--16--16full-------------|
G-----------------------------------------------------|
D-----------------------------------------------------|
A-----------------------------------------------------|
E-----------------------------------------------------|


E-----------------------------------------------------|
B-14h1614--------14--16--14---------------------------|
G--------------16-------------------16 full-----------|
D-----------------------------------------------------|
A-----------------------------------------------------|
E-----------------------------------------------------|


E--------------------------------------------------------|
B---------------------12---------------------------------|
G--16--13--16r13------11--13r11--13--11--9full-----------|
D--------------------------------------------------------|
A--------------------------------------------------------|
E--------------------------------------------------------|


E-----------------------------------------------------|
B------12---1414full--1212--14full--------12----------|
G-11--------------------------------------------------|
D-----------------------------------------------------|
A-----------------------------------------------------|
E-----------------------------------------------------|


                                        i'm for ever
E---------19-------------19---------19----------------|
B--19full---19r-------------19full-----19r------------|
G-----------------------------------------------------|
D-----------------------------------------------------|
A-----------------------------------------------------|
E-----------------------------------------------------|


 yours.........................................
E-19-------19-------------19-------19-----------------|
B----19full----19r------------19full---19r------------|
G-----------------------------------------------------|
D-----------------------------------------------------|
A-----------------------------------------------------|
E-----------------------------------------------------|


  ever.................
E-19-------19-------------19-------19-----------------|
B----19full----19r------------19full---19r------------|
G-----------------------------------------------------|
D-----------------------------------------------------|
A-----------------------------------------------------|
E-----------------------------------------------------|

you'rs................................................
E-19-------19-------------19-------19-----------------|
B----19full----19r------------19full---19r------------|
G-----------------------------------------------------|
D-----------------------------------------------------|
A-----------------------------------------------------|
E-----------------------------------------------------|

                          faithfully..................
E-19-------19-------------19full-----19full-----------|
B----19full----19r------------------------------------|
G-----------------------------------------------------|
D-----------------------------------------------------|
A-----------------------------------------------------|
E-----------------------------------------------------|

E-16---19---16---19---16--19full-19full-19full--------|
B-----------------------------------------------------|
G-----------------------------------------------------|
D-----------------------------------------------------|
A-----------------------------------------------------|
E-----------------------------------------------------|


E--16---19---16--------------------------------------|
B---------------------19full---16--------------------|
G------------------------------------18--------------|
D----------------------------------------------------|
A----------------------------------------------------|
E----------------------------------------------------|


E-----------------------------------------------------|
B-----------------------------------------------------|
G--18half--18--18full-18full-16-----------------------|
D-------------------------------------18--------------|
A-----------------------------------------------------|
E-----------------------------------------------------|
            
Submit corrections

comments powered by Disqus
↑ Back to top | Journey Tabs for Faithfully. Lyrics for acoustic guitar and electric guitar. 1 Tablatures and chords are parodies/interpretations of the original songs. You may use it for private study, scholarship, research or language learning purposes only