» » »

Dont Stop Believing Tabs (ver.6)

Artists:  A B C D E F G H I J K L M N O P Q R S T U V W X Y Z # 

Dont Stop Believing Tabs (ver.6)

Journey
Rating:
0/5 (0 votes)

Tabs too difficult? Try these video lessons and learn fast.
                Journey - Don't stop Believing (acoustic)



Intro:

e|-7---7---7-------7---7---7-------7---7---7-------5---5---5-----|
B|-5---5---5-------7---7---7-------5---5---5-------2---2---2-----|
G|---4---4-----------4---4-----------4---4-----------2---2-------|
D|-----------------------------------------------------------1-2-|
A|---------------------------4-6-4-----------6-7-0---------------|
E|-0---------2-4-7-----------------------------------------------|


e|---7---7---7-------7---7---7-------7---7---7---7--5---5---5-----|
B|---5---5---5-------7---7---7-------4---4---4---4--2---2---2-----|
G|-----4---4-----------4---4-----------4---4----------2---2-------|
D|------------------------------------------------------------1-2-|
A|-----------------------------4-6------------------0-------------|
E|-0-----------2-4-7---------------4-----------4------------------|


Verse:

e|---7---7---7-------7---7---7-------7---7---7-------5---5---5-----|
B|---5---5---5-------7---7---7-------5---5---5-------2---2---2-----|
G|-----4---4-----------4---4-----------4---4-----------2---2-------|
D|-------------------------------------------------------------1-2-|
A|-----------------------------4-6-4-----------6-7-0---------------|
E|-0-----------2-4-7-----------------------------------------------|

Just a small town girl.....
Just a city boy...
etc. etc.


e|---7---7---7-------7---7---7-------7---7---7---7--5---5---5-----|
B|---5---5---5-------7---7---7-------4---4---4---4--2---2---2-----|
G|-----4---4-----------4---4-----------4---4----------2---2-------|
D|------------------------------------------------------------1-2-|
A|-----------------------------4-6------------------0-------------|
E|-0-----------2-4-7---------------4-----------4------------------|

She took the midnight train...
He took the midnight train...
etc. etc.


Pre-chorus:

e|----------------------------------------------------------------------|
B|-7-----5---------7-----9---------7-7-7-7-7h9-9-9-9--7-7-7-7-7h9-9-9-9-|
G|-8-----6---------8-----9---------8-8-8-8-8h9-9-9-9--8-8-8-8-8h9-9-9-9-|
D|-9-----7---------9-----9---------9-9-9-9-9-9-9-9-9--9-9-9-9-9-9-9-9-9-| (x3)
A|---0-0---0-0-0-0---0-0---0-0-0-0--------------------------------------|
E|----------------------------------------------------------------------|

Strangers waiting...
Their shadows...
Streetlight people...


e|----------------------------------------------|
B|-7-----5---------7-----9---------7--9--7--5-5-|
G|-8-----6---------8-----9---------8--9--8--6-6-|
D|-9-----7---------9-----9---------9--9--9--7-7-|
A|---0-0---0-0-0-0---0-0---0-0-0-0-9--7--9--7-7-|
E|----------------------------------------------|

Hiding somewhere...


Chorus without lyrics:

e|---0----------------------------------------------------------|
B|---0----------4-4-4----------5-5-5------------2-2-2-----2-2-2-|
G|---1----------4-4-4----------6-6-6--------0-0-2-2-2-0-0-2-2-2-|
D|---2----------4-4-4------1---6-6-6--------0-0-2-2-2-0-0-2-2-2-| (x2)
A|---2--------2-2-2-2--2-4---4-4-4-4--4-6-7-----0-0-0-----0-0-0-|
E|-0-0--0-2-4---------------------------------------------------|


Chorus:

Just strum: E B Cm A

Questions or comments?
            
Tabs too difficult? Try these video lessons and learn fast.




comments powered by Disqus
↑ Back to top | Tablatures and chords are parodies/interpretations of the original songs. You may use it for private study, scholarship, research or language learning purposes only