» » »

Journey, Any Way You Want It Tabs (ver.3)

Artists:  A B C D E F G H I J K L M N O P Q R S T U V W X Y Z # 

Any Way You Want It Tabs (ver.3)

Journey Tabs
 Rating:
3.7/5 (6 votes)
Any Way You Want It lessons Tabs too difficult? Try these video lessons and learn fast
                
1st Guitar: Partially Distorted
2nd Guitar: Plain Electric

Intro

   1st Guitar

    e------------------------------------------------------------------|
    B------------------------------------------------------------------|
    G------------------------------------------------------------------|
  / D--5-----------------------5-4-------------------------------------|
 |  A--5-----------------------5-4-------------------------------------|
 |  E--3-----------------------3—1-< And yes, that is a 1. Trust me. --|
 /     Any way you want it.      That’s the way you need it.
{
 \  2nd Guitar
 |
 |  e------------------------------------------------------------------|
 |  B------------------------------------------------------------------|
  \ G------------------------------------------------------------------|
    D--5-----------------------5-4-------------------------------------|
    A--5-----------------------5-4-------------------------------------|
    E--3-----------------------3-2-------------------------------------|

    e------------------------------------------------------------------|
    B------------------------------------------------------------------|
    G----------------------5-----5-----5--------5-----4-----5-----2----|
  / D--2-------------------5-----5-----5--------5--0--2--0--5-----2----|
 |  A--2-------------------3--2--3--2--3--2-----3-----------3--2--0----|
 |  E--0------------------------------------3--------------------------|
 /     Any way you want it.
{
 \
 |  e------------------------------------------------------------------|
 |  B------------------------------------------------------------------|
  \ G------------------------------------------------------------------|
    D--2-------------------------------------------0--2--0-------------|
    A--2-------------------3--2--3--2--3--2-----3-----------3--2--0----|
    E--0------------------------------------3--------------------------|

Verse 1

    e------------------------------------------------------------------|
    B------------------------------------------------------------------|
    G------------------------------------------------------------------|
  / D-5-x--x--x--x--x----5-4-x--x--x--x--x----4-2-x--x--x--x--x--------|
 |  A-5-x--x--x--x--x----5-4-x--x--x--x--x----4-2-x--x--x--x--x--------|
 |  E-3-x--x--x--x--x----3-1-x--x--x--x--x----1-0-x--x--x--x--x--------|
 /      She loves to laugh  She loves to sing    She does everything.
{
 \  e------------------------------------------------------------------|
 |  B------------------------------------------------------------------|
 |  G------------------------------------------------------------------|
  \ D-5------------------5-4------------------4-2----------------------|
    A-5------------------5-4------------------4-2----------------------|
    E-3------------------3-2------------------2-0----------------------|

    e-------------------------------|
    B-------------------------------|
    G-5-----5-----5-----2-----------|
  / D-5-----5-----5-----2-----------|
 |  A-3--2--3--2--3--2--0-----------|
 /  E-------------------------------|
{
 \  e--------------------------------|
 |  B--------------------------------|
  \ G--------------------------------|
    D--------------------------------|
    A-3--2--3--2--3--2--0------------|
    E--------------------------------|

    e------------------------------------------------------------------|
    B------------------------------------------------------------------|
    G------------------------------------------------------------------|
  / D-5-x--x--x--x--x----5-4-x--x--x--x--x----4-2-x--x--x--x--x--------|
 |  A-5-x--x--x--x--x----5-4-x--x--x--x--x----4-2-x--x--x--x--x--------|
 |  E-3-x--x--x--x--x----3-1-x--x--x--x--x----1-0-x--x--x--x--x--------|
 /      She loves to move    She loves to grove   She loves the lovin’
{                                                 things
 \
 |  e------------------------------------------------------------------|
 |  B------------------------------------------------------------------|
 |  G------------------------------------------------------------------|
  \ D-5------------------5-4------------------4-2----------------------|
    A-5------------------5-4------------------4-2----------------------|
    E-3------------------3-2------------------2-0----------------------|

Pre-Chorus 1

    e------------------------------------------------------------------|
    B------------------------------------------------------------------|
    G------------------------------------------------------------------|
  / D-5-x--x--x--x--x----5-4-x--x--x--x--x----4-2-x--x--x--x--x--------|
 |  A-5-x--x--x--x--x----5-4-x--x--x--x--x----4-2-x--x--x--x--x--------|
 |  E-3-x--x--x--x--x----3-1-x--x--x--x--x----1-0-x--x--x--x--x--------|
 /      Oh, all night        All night            Oh every night
{
 \
 |  e------------------------------------------------------------------|
 |  B------------------------------------------------------------------|
  \ G------------------------------------------------------------------|
    D-5------------------5-4------------------4-2----------------------|
    A-5------------------5-4------------------4-2----------------------|
    E-3------------------3-1------------------2-0----------------------|

    e--------------------------------|
    B--------------------------------|
    G-5-----5-----5------------------|
  / D-5-----5-----5------------------|
 |  A-3--2--3--2--3--2--0------------|
 |  E--------------------------------|
 /
{
 \
 |  e--------------------------------|
 |  B--------------------------------|
  \ G--------------------------------|
    D--------------------------------|
    A--3--2--3--2--3--2--0-----------|
    E--------------------------------|

    e------------------------------------------------------------------|
    B------------------------------------------------------------------|
    G------------------------------------------------------------------|
  / D-5-x--x--x--x--x----5-4-x--x--x--x--x----4-2-x--x--x--x--x--------|
 |  A-5-x--x--x--x--x----5-4-x--x--x--x--x----4-2-x--x--x--x--x--------|
 |  E-3-x--x--x--x--x----3-1-x--x--x--x--x----1-0-x--x--x--x--x--------|
 /      So hold tight        Hold tight           Baby hold tight
{
 \
 |  e------------------------------------------------------------------|
 |  B------------------------------------------------------------------|
  \ G------------------------------------------------------------------|
    D-5------------------5-4------------------4-2----------------------|
    A-5------------------5-4------------------4-2----------------------|
    E-3------------------3-2------------------2-0----------------------|

    e--------------------------------|
    B--------------------------------|
    G-5-----5-----5------------------|
  / D-5-----5-----5------------------|
 |  A-3--2--3--2--3--2--0------------|
 |  E--------------------------------|
 /                 Oh   She said
{
 \
 |  e--------------------------------|
 |  B--------------------------------|
  \ G--------------------------------|
    D--------------------------------|
    A--3--2--3--2--3--2--0-----------|
    E--------------------------------|

Chorus 1

    e|-----------------------------------------------------------------|
    B|-o---------------------------------------------------------------|
    G|-----------------------------------------------------------------|
  / D|---5-----------------------4-------------------------------------|
 |  A|-o-5-----------------------4-------------------------------------|
 |  E|---3-----------------------1-------------------------------------|
 /     Any way you want it.      That’s the way you need it.
{
 \
 |  e------------------------------------------------------------------|
 |  B------------------------------------------------------------------|
  \ G------------------------------------------------------------------|
    D----5--5--5--5--5--5--5--5--4--4--4--4--4--4--4--4----------------|
    A----5--5--5--5--5--5--5--5--4--4--4--4--4--4--4--4----------------|
    E----3--3--3--3--3--3--3--3--2--2--2--2--2--2--2--2----------------|

                           _____________________     ________________
                        1 /                     \ 2 /
    e-------------------|------------------------|---------------------|
    B-------------------|---------------------o--|---------------------|
    G-------------------|--5-----5-----5---------|-5-----4-----5-----2-|
  / D--2----------------|--5-----5-----5---------|-5--0--2--0--5-----2-|
 |  A--2----------------|--3--2--3--2--3--2---o--|-3-----------3--2--0-|
 |  E--0----------------|-------------------3----|---------------------|
 /     Any way you want it.
{
 \                         _____________________     ________________
 |                      1 /                     \ 2 /
 |  e-------------------|------------------------|---------------------|
 |  B-------------------|---------------------o--|---------------------|
  \ G-------------------|------------------------|---------------------|
    D--2----------------|------------------------|----0--2--0----------|
    A--2----------------|--3--2--3--2--3--2---o--|-3-----------3--2--0-|
    E--0----------------|-------------------3----|---------------------|

Verse 2

    e------------------------------------------------------------------|
    B------------------------------------------------------------------|
    G------------------------------------------------------------------|
  / D-5-x--x--x--x--x----5-4-x--x--x--x--x----4-2-x--x--x--x--x--------|
 |  A-5-x--x--x--x--x----5-4-x--x--x--x--x----4-2-x--x--x--x--x--------|
 |  E-3-x--x--x--x--x----3-1-x--x--x--x--x----1-0-x--x--x--x--x--------|
 |      I was alone          I never knew        what good love could
 /                                                               do
{
 \
 |  e------------------------------------------------------------------|
 |  B------------------------------------------------------------------|
  \ G------------------------------------------------------------------|
    D-5------------------5-4------------------4-2----------------------|
    A-5------------------5-4------------------4-2----------------------|
    E-3------------------3-2------------------2-0----------------------|

    e--------------------------------|
    B--------------------------------|
    G-5-----5-----5------------------|
  / D-5-----5-----5------------------|
 |  A-3--2--3--2--3--2--0------------|
 |  E--------------------------------|
 /
{
 \
 |  e--------------------------------|
 |  B--------------------------------|
  \ G--------------------------------|
    D--------------------------------|
    A--3--2--3--2--3--2--0-----------|
    E--------------------------------|

    e------------------------------------------------------------------|
    B------------------------------------------------------------------|
    G------------------------------------------------------------------|
  / D-5-x--x--x--x--x----5-4-x--x--x--x--x----4-2-x--x--x--x--x--------|
 |  A-5-x--x--x--x--x----5-4-x--x--x--x--x----4-2-x--x--x--x--x--------|
 |  E-3-x--x--x--x--x----3-1-x--x--x--x--x----1-0-x--x--x--x--x--------|
 |     O then we touched    and we sang          about the lovin’
 /                                                         things.
{
 \
 |  e------------------------------------------------------------------|
 |  B------------------------------------------------------------------|
  \ G------------------------------------------------------------------|
    D-5------------------5-4------------------4-2----------------------|
    A-5------------------5-4------------------4-2----------------------|
    E-3------------------3-1------------------2-0----------------------|

Pre-Chorus 2

    e------------------------------------------------------------------|
    B------------------------------------------------------------------|
    G------------------------------------------------------------------|
  / D-5-x--x--x--x--x----5-4-x--x--x--x--x----4-2-x--x--x--x--x--------|
 |  A-5-x--x--x--x--x----5-4-x--x--x--x--x----4-2-x--x--x--x--x--------|
 |  E-3-x--x--x--x--x----3-1-x--x--x--x--x----1-0-x--x--x--x--x--------|
 /      Oh, all night        All night            Oh every night
{
 \
 |  e------------------------------------------------------------------|
 |  B------------------------------------------------------------------|
  \ G------------------------------------------------------------------|
    D-5------------------5-4------------------4-2----------------------|
    A-5------------------5-4------------------4-2----------------------|
    E-3------------------3-1------------------2-0----------------------|

    e--------------------------------|
    B--------------------------------|
    G-5-----5-----5------------------|
  / D-5-----5-----5------------------|
 |  A-3--2--3--2--3--2--0------------|
 |  E--------------------------------|
 /
{
 \
 |  e--------------------------------|
 |  B--------------------------------|
  \ G--------------------------------|
    D--------------------------------|
    A--3--2--3--2--3--2--0-----------|
    E--------------------------------|

    e------------------------------------------------------------------|
    B------------------------------------------------------------------|
    G------------------------------------------------------------------|
  / D-5-x--x--x--x--x----5-4-x--x--x--x--x----4-2-x--x--x--x--x--------|
 |  A-5-x--x--x--x--x----5-4-x--x--x--x--x----4-2-x--x--x--x--x--------|
 |  E-3-x--x--x--x--x----3-1-x--x--x--x--x----1-0-x--x--x--x--x--------|
 /      So hold tight        Hold tight           Baby hold tight
{
 \
 |  e------------------------------------------------------------------|
 |  B------------------------------------------------------------------|
  \ G------------------------------------------------------------------|
    D-5------------------5-4------------------4-2----------------------|
    A-5------------------5-4------------------4-2----------------------|
    E-3------------------3-2------------------2-0----------------------|

    e--------------------------------|
    B--------------------------------|
    G-5-----5-----5------------------|
  / D-5-----5-----5------------------|
 |  A-3--2--3--2--3--2--0------------|
 |  E--------------------------------|
 /                 Oh   She said
{
 \
 |  e--------------------------------|
 |  B--------------------------------|
  \ G--------------------------------|
    D--------------------------------|
    A--3--2--3--2--3--2--0-----------|
    E--------------------------------|

Chorus 2

    e|-----------------------------------------------------------------|
    B|-o---------------------------------------------------------------|
    G|-----------------------------------------------------------------|
  / D|---5-----------------------4-------------------------------------|
 |  A|-o-5-----------------------4-------------------------------------|
 |  E|---3-----------------------1-------------------------------------|
 /     Any way you want it.      That’s the way you need it.
{
 \
 |  e------------------------------------------------------------------|
 |  B------------------------------------------------------------------|
  \ G------------------------------------------------------------------|
    D----5--5--5--5--5--5--5--5--4--4--4--4--4--4--4--4----------------|
    A----5--5--5--5--5--5--5--5--4--4--4--4--4--4--4--4----------------|
    E----3--3--3--3--3--3--3--3--2--2--2--2--2--2--2--2----------------|


    e-------------------|------------------------|
    B-------------------|------------------------|
    G-------------------|--5-----5-----5---------|
  / D--2----------------|--5-----5-----5---------|
 |  A--2----------------|--3--2--3--2--3--2------|
 |  E--0----------------|-------------------3----|
 /     Any way you want it.
{
 \
 |  e-------------------|------------------------|
 |  B-------------------|------------------------|
  \ G-------------------|------------------------|
    D--2----------------|------------------------|
    A--2----------------|--3--2--3--2--3--2------|
    E--0----------------|-------------------3----|

Good luck with the rest.
See Ya later,
        DethCap4Cu-tFn
            
Submit corrections

comments powered by Disqus
↑ Back to top | Journey Tabs for Any Way You Want It. Lyrics for acoustic guitar and electric guitar. Tablatures and chords are parodies/interpretations of the original songs. You may use it for private study, scholarship, research or language learning purposes only