» » »

Any Way You Want It Bass tabs (ver.3)

Artists:  A B C D E F G H I J K L M N O P Q R S T U V W X Y Z # 

Any Way You Want It Bass tabs (ver.3)

Journey
Rating:
4/5 (1 vote)

Tabs too difficult? Try these video lessons and learn fast.
                Intro
|------------------------------------------|
|------------------------------0-2-0-------|
|-------------3-2-3-2-3-2-0--3-------3-2-0-|
|--3--0-2--0-------------------------------|

Verse
|---------------------------------------------------------|
|---------------------------------------------------------|
|-------------------------------------------3-2-3-2-3-2-0-|
|-3-3--3-3-3-3--2-2--2-2-2-2--0-0--0-0-0-0----------------|

Chorus
|--------------------------------------------------------|
|--------------------------------------------------------|
|----------------------------------------3-2-3-2-3-2-0---|
|-3-3-3-3-3-3--2-2-2-2-2-2--0-0-0-0-0-0------------------|

|--------------------------------------------------------|
|--------------------------------------------0-2---------|
|----------------------------------------3-2-----3-2-0---|
|-3-3-3-3-3-3--2-2-2-2-2-2--0-0-0-0-0-0------------------|

"Hold on"
|-------------------------------------------------------|
|-------------------------------------------------------|
|----------------------------------------4-2-4-2--------|
|-3-3-3-3-3-3--2-2-2-2-2-2--0-0-0-0-0-0----------2-3----|



Order: (number of times you play it might not be right)
Intro
Verse (x4)
Chorus
Verse (x4)
Chorus (x2)
"Hold on" (x2)
Chorus (x2)
            
Tabs too difficult? Try these video lessons and learn fast.




comments powered by Disqus
↑ Back to top | Tablatures and chords are parodies/interpretations of the original songs. You may use it for private study, scholarship, research or language learning purposes only