» » »

Journey, Any Way You Want It Bass tabs (ver.1)

Artists:  A B C D E F G H I J K L M N O P Q R S T U V W X Y Z # 

Any Way You Want It Bass tabs (ver.1)

Journey Tabs
Rating:
4/5 (8 votes)
Any Way You Want It lessons Tabs too difficult? Try these video lessons and learn fast
                playing bass for a month. There may be a few minor mistakes, but I'm certain this is the
accurate bass tab of "Any way you want it" you'll find on the site. Please rate, feel
to critizise. Thank you, enjoy.


___________________________________________________________________________
"Any Way You Want It" is a popular song performed by Journey released on the album
as the opening track, and as a single in 1980. The song is sung by Steve Perry and Neal Schon
the guitarist. It peaked at #23 at Billboard 100. With its catchy lyrics and rhythm
Schon's guitar solo for the bridge), the song proved to be an instant classic and
band would indeed often play it to close their concerts. It appears on all four live
released by Journey up to now (Captured, Greatest Hits Live, Live in Houston 1981: The
Tour, and Revelation on DVD). The song was named the 80th best hard rock song of all 
____________________________________________________________________________


Intro
|--------------------------------------------|
|--------------------------------0-2-0-------|
|-------------3-2-3-2-3-2-0--3--------3-2-0--|
|--3--2-2--0--------------------------------3|


Verse 1
|----------------------------------------------------------|
|----------------------------------------------------------| x2
|--------------------------------------------3-2-3-2-3-2-0-|
|--3-3-3-3-3-2-2--2-2-2-2-2-0-0--0-0-0-0-0-0--------------3|

Prechorus
|----------------------------------------------------------|
|----------------------------------------------------------|
|--------------------------------------------3-2-3-2-3-2-0-|
|--3-3-3-3-3-2-2--2-2-2-2-2-0-0--0-0-0-0-0-0--------------3|

|----------------------------------------------------------|
|---------------------------------------------0-2-4-5-7-9-5|
|------------------------------------------3---------------|
|--3-3-3-3-3-2-2--2-2-2-2-2-0-0--2--3--5-7-----------------|

Chorus
|----0---0------------------------------------------|
|--------------4----4---4---2-----2-----------------|
|--------------------------------------3-2-3-2-3-2-0|
|--3---3---3-2----2---2---0---0-0--0-0--------------|

|----0---0----------------------------------------------|
|--------------4----4---4---2----------------0-2-0------|
|-------------------------------------0-2-3-------3-2---|
|--3---3---3-2----2---2---0----0-1-2-----------------0-3|

Verse 2
|----------------------------------------------------------|
|----------------------------------------------------------| x2
|--------------------------------------------3-2-3-2-3-2-0-|
|--3-3-3-3-3-2-2--2-2-2-2-2-0-0--0-0-0-0-0-0--------------3|

Prechorus
|----------------------------------------------------------|
|----------------------------------------------------------|
|--------------------------------------------3-2-3-2-3-2-0-|
|--3-3-3-3-3-2-2--2-2-2-2-2-0-0--0-0-0-0-0-0--------------3|

|----------------------------------------------------------|
|---------------------------------------------0-2-4-5-7-9-5|
|------------------------------------------3---------------|
|--3-3-3-3-3-2-2--2-2-2-2-2-0-0--2--3--5-7-----------------|

Chorus 2 ( If you look carefully at the second bar, chorus 2 is slightly different than
1 )
|----0---0------------------------------------------|
|--------------4----4---4---2-----2-----------------|
|--------------------------------------3-2-3-2-3-2-3|
|--3---3---3-2----2---2---0---0-0--0-0--------------|

|----0---0-------------------------------------------|
|--------------4----4---4----------------------------|
|------------------------------------0h2h3--3--3-3p2-|
|--3---3---3-2----2---2---0-0--2--3-----------------3|

Guitar Solo 1

|-----------------------------------------------------|
|-----------------------------------------------------|
|---------------------------------------3-2-3-2-3-2---|
|--3--3--3--2-2--2--2--2-0-0-0-0--0----------------3-3|

|------------------------------------------------------|
|----------------------------------------0-2-4-5-7-9-10|
|------------------------------------------------------|
|--3--3--3--2-2--2--2--2-0-0-2--3--5--7----------------|

 Post solo
|----0---0------------------------------------------|
|---------------------------------------------------|
|-----------------------------------------3-3-3-2---|
|--3---3---3-2-2-2-2--2--2-0-0--0--0--0-0--------3-3|

|--------------------------------------------------|
|--------------------------------------------------|
|----------------------------------------3-3-3-2---|
|--3--3--3--2-2--2--2--2--0-0--2--3--5--7-------3-3|

Guitar solo 2
|---------------------------------------------------|
|---------------------------------------------------|
|------------------------------------3-2-3-2-3-2----|
|--3--3--3--2-2--2--2--2-0-0--0--0-0-------------3-3|

|--------------------------------------------------|
|--------------------------------------------------|
|----------------------------------------3-3-3-2---|
|--3--3--3--2-2--2--2--2-0-0--2--3--5--7--------3-3|

|------------------------------------------------------|
|------------------------------------------------------|
|------------------------------------0-2-3-2-3-2-3-2---|
|--3--3--3--2-2--2--2--2-0-0--0--0-0----------------3-3|

|--------------------------------------------------|
|--------------------------------------------------|
|----------------------------------------3-3-3-2---|
|--3--3--3--2-2--2--2--2-0-0--2--3--5--7--------3-3|

|---------------------------------------------------|
|---------------------------------------------------|
|------------------------------------3-2-3-2-3-2----|
|--3--3--3--2-2--2--2--2-0-0--0--0-0-------------3-3|

|--------------------------------------------------|
|--------------------------------------------------|
|----------------------------------------3-3-3-2---|
|--3--3--3--2-2--2--2--2-0-0--2--3--5--7--------3-3|

|------------------------------------------------------|
|------------------------------------------------------|
|----------------------------------------3-2-3-2-3-2---|
|--3--3-3--2-2--2--2-2-2-0-0--2--3--5--7------------3-3|

|-------------------------------------------------|
|-----------------------------------------------7-|
|----------------------------------------3-3-3-2--|
|--3--3-3--2-2--2--2-2-2-0-0--2--3--5--7----------|


Third Chorus/Outro
|---------------------------------------------------|
|-------------4-----------2-----------------------7-|
|----------------------------------------3-3-3-2----|
|--3--3--3--2---2--2--2-0---2--3--5--7-----------3--|

|---------------------------------------------------|
|-------------4-----------2-------------------------|
|----------------------------------------3-3-3-2----|
|--3--3--3--2---2--2--2-0---2--3--5--7-----------3-3|
            

comments powered by Disqus
↑ Back to top | Journey Bass for Any Way You Want It. Lyrics for acoustic guitar and electric guitar. Tablatures and chords are parodies/interpretations of the original songs. You may use it for private study, scholarship, research or language learning purposes only