» » »

After All These Years Tabs (ver.4)

Artists:  A B C D E F G H I J K L M N O P Q R S T U V W X Y Z # 

After All These Years Tabs (ver.4)

Journey
Rating:
0/5 (0 votes)

Hard to play? Try these video lessons and learn fast.
                (Intro)
Journey, After All These Years, Rvelations

Listen to it for better timing. I just listened to it and was messin around and it 
pretty close.


e|-------11---9-------11---9-----|--------11--9------11--9----|
b|-----10---------10-------------|-----10--------10-----------|
g|----9--------------------------|--9-------------------------|
d|-------------------------------|----------------------------|
a|-------------------------------|----------------------------|
e|-------------------------------|----------------------------|

e|--------9---11---14---------|---------9---11-11\5------------|
b|---10------------------10---|---10---------------------7-----|
g|----------------------------|----------------------------9---|
d|----------------------------|--------------------------------|
a|----------------------------|--------------------------------|
e|----------------------------|--------------------------------|
            
Hard to play? Try these video lessons and learn fast. | Correct




comments powered by Disqus
↑ Back to top | Tablatures and chords are parodies/interpretations of the original songs. You may use it for private study, scholarship, research or language learning purposes only