» » »

Saltwater Tabs (ver.1)

Artists:  A B C D E F G H I J K L M N O P Q R S T U V W X Y Z # 

Saltwater Tabs (ver.1)

Joshua James
Rating:
0/5 (0 votes)

Hard to play? Try these video lessons and learn fast.
                "Salt Water"
Joshua James


I know he plays banjo but I tabbed it using guitar.

tuning: standard

Intro 

e|-----------1--------1------0-----------1---------1---------1------|
B|-----------3--------1------1-----------3------------3---------3---|
G|-------2---2--------2------1-------2---2-----0h2-------0h2--------|
D|----0------------3------2-------0---------------------------------|
A|------------------------------------------------------------------|
E|------------------------------------------------------------------|


e|------1-----1----------1-------0------------1---|
B|--------3-----3--------1-------1------------3---|
G|----------2------------2-------1------------2---|
D|---------------------3------2---------------0---|
A|------------------------------------------------|
E|------------------------------------------------|

1st Verse

e|-----------1--------1------0-----------1---------1---------1------|
B|-----------3--------1------1-----------3------------3---------3---|
G|-------2---2--------2------1-------2---2-----0h2-------0h2--------| x4
D|----0------------3------2-------0---------------------------------|
A|------------------------------------------------------------------|
E|------------------------------------------------------------------|

after lyrics 

e|-----------1--------1------0-----------1---------1---------1------|
B|-----------3--------1------1-----------3------------3---------3---|
G|-------2---2--------2------1-------2---2-----0h2-------0h2--------| x1
D|----0------------3------2-------0---------------------------------|
A|------------------------------------------------------------------|
E|------------------------------------------------------------------|


e|------1-----1----------1-------0------------1---|
B|--------3-----3--------1-------1------------3---|
G|----------2------------2-------1---------2--2---| x1
D|---------------------3------2---------0---------|
A|------------------------------------------------|
E|------------------------------------------------|

then back to verse 


Pre Chorus

e|--------0---------1---------1---------1-------|
B|--------2---------3------------3---------3----|
G|----2---2-----2---2-----0h2-------0h2---------| x3
D|-2------2-------------------------------------|
A|----------------------------------------------|
E|----------------------------------------------|


e|-----------0-----|
B|-----------2-----|
G|-------2---2-----| x3
D|----2------2-----|
A|-----------------|
E|-----------------|

Chorus

listen to song for strumming

e|--------1--------0--------0---------|
B|--------3--------1--------2---------|
G|--------2--------2--------2---------|
D|--------0--------3--------2---------|
A|-----------------3--------0---------|
E|------------------------------------|


end of Chorus

e|----------0----|
B|----------2----|
G|----------2----|
D|----------2----|
A|----------0----|
E|---------------|


Repeat verse

Then Pre Chorus

Then Chorus

Then

e|----------------3---------|
B|----------------3---------|
G|-------------3--3--3------| x2
D|--------------------------|
A|--------------------------|
E|----------3---------------|


e|----------------1---------|
B|----------------1---------|
G|-------------2-----2------| x2
D|----------3---------------|
A|--------------------------|
E|--------------------------|

e|----------------0-----|
B|----------------2-----|
G|-------------2-----2--| x3
D|----------2-----------|
A|----------------------|
E|----------------------|


Repeat above one more time

then 

Chorus

Song ends on

e|----------1----|
B|----------3----|
G|----------2----|
D|----------0----|
A|---------------|
E|---------------|
            
Hard to play? Try these video lessons and learn fast. | Correct




comments powered by Disqus
↑ Back to top | Tablatures and chords are parodies/interpretations of the original songs. You may use it for private study, scholarship, research or language learning purposes only