» » »

Joshua James, Lovers Without Love Tabs (ver.1)

Artists:  A B C D E F G H I J K L M N O P Q R S T U V W X Y Z # 

Lovers Without Love Tabs (ver.1)

Joshua James Tabs
Rating:
5/5 (4 votes)
Lovers Without Love lessons Tabs too difficult? Try these video lessons and learn fast
                

off of "B-sides It's Dark Outside"


Capo on 3


intro and verse:

e|---------------------------------------------------------------------------|
B|-----1------1-----1------1-------1------1------1------1-------1-------1----|
G|-----0------0-----0------0-------0------0------0------0-------0-------0----|
D|---------0-----2-------------3-------2------0------2---------------0-------|
A|--3-------------------3------------------------------------3---------------|
E|---------------------------------------------------------------------------|

e|---------------------------------------------------------------------------|
B|-----1-----1-------1-----1-----1-----1-----1-----1-----1-----1-----1-----1-|
G|-----0-----0-------0-----0-----0-----0-----0-----0-----0-----0-----0-----0-|
D|--2-------------0-----0-----------0-----------0-----2-----------3-----2----|
A|--------3-------------------------------3-----------------3----------------|
E|----------------------------3----------------------------------------------|

e|---------------------------------------------------------------------------|
B|-----1-----1-----1-----1-----1-----1-----1-----1-----1-----1---------------|
G|-----0-----0-----0-----0-----0-----0-----0-----0-----0-----0---------------|
D|--0-----2-----------2-----0-----------3------------------------------------|
A|--------------3------------------------------------------------------------|
E|--------------------------------3------------------------------------------|

Chorus:

e|---------------------------------------------------------------------------|
B|-----1-----1-----1-----1-----3-----3-----1-----1-----1-----1-----1-----1---|
G|-----2-----2-----0-----0-----0-----0-----0-----0-----2-----2-----0-----0---|
D|--------3-----------2-----------0-----------2-----------3-----------2------|
A|--------------3-----------------------3-----------------------3------------|
E|--1-----------------------3-----------------------1------------------------|

e|---------------------------------------------------------------------------|
B|-----3-----3-----3-----3-----1-----1-----3-----3-----1-----1-----1-----1---|
G|-----0-----0-----0-----0-----2-----2-----0-----0-----0-----0-----2-----2---|
D|--------0-----------0-----------3-----------0-----------------------2------|
A|--------------------------------------------------3-----2-----0------------|
E|--3-----------3-----------1-----------3------------------------------------|

e|---------------------------------------------------------------------------|
B|-----1-----1-----3-----3---------------------------------------------------|
G|-----2-----2-----0-----0---------------------------------------------------|
D|--------3-----------0-----------back into intro----------------------------|
A|---------------------------------------------------------------------------|
E|--1-----------3------------------------------------------------------------|


Intro


verse 1:

This road has all but taught me lessons
about my lonely soul.
I am young and getting wiser,
soon i will grow old.
Strip my heart from misconceptions,
fill my eyes with greed.
But let me make my own connections,
in this endless sea.

chorus:

of muscle cars, and endless bars,
of shopping centers for the teens,
of high priced propane,
and crack cocaine,
and lovers without love like me.

Verse 2:

I've seen so much my visions blurry,
in this world i live.
And if we're to change then we must hurry,
the devils movin in.
Love, and hate cannot see color,
like the human eye,
so priests and preachers, 
parents teachers, don't act so
damn surprised.

Chorus 2:

It's the world we've made,
we're livin in,
of greed, lust and poverty.
of war and pride, teen suicide,
and lovers without love like me (Am)
and lovers without love like me

verse 3:

(humm over the verse chords)

Chorus 3:

Theres kids in gangs,
we have coveted fame,
theres sweat shops across the sea,
we have abortive mothers,
and we sure hate each other.
and theres lovers without love,
theres lovers without love,  (alternate from the F to the G, same picking)
theres lovers without love,
li..ike me.

do intro out


i hope this helps.
            

comments powered by Disqus
↑ Back to top | Joshua James Tabs for Lovers Without Love. Lyrics for acoustic guitar and electric guitar. Tablatures and chords are parodies/interpretations of the original songs. You may use it for private study, scholarship, research or language learning purposes only