» » »

Joshua James, Fm Radio Tabs (ver.1)

Artists:  A B C D E F G H I J K L M N O P Q R S T U V W X Y Z # 

Fm Radio Tabs (ver.1)

Joshua James Tabs
 Rating:
4.4/5 (7 votes)
Fm Radio lessons Tabs too difficult? Try these video lessons and learn fast
                -------------------------------------------------------------------------------
-------------------------------------------------------------------------------
This is a great sounding song that is quite easy to play, listen to the song
 to get the strumming right. Standard tuning, only a few simple patterns.

Chords:
D xx0232
E xx2100

Tuning: Standard

e|--------0----------------0-----------|
B|----2-------3---2----0-------3---2---|
G|--2---2---2---2----------------------|  Intro
D|-------------------2---2---2---2-----|
A|-------------------------------------|
E|-------------------------------------|

e|----0---5---0---0---------------------|
B|----2---5---3---2---------5---3---2---|
G|--2-2-2-2-2-2-2-2-----4---4---4---4---|  Verse
D|--------------------2-2-2-2-2-2-2-2---|
A|--------------------------------------|
E|--------------------------------------|

e|--------0--------------------------------------|
B|----0h2-----3p2---0h2------------0--\3-2-0-2---|
G|--2-------2-----2-----2------0h1---------------|  Fill
D|---------------------------2-------------------|
A|-----------------------------------------------|
E|-----------------------------------------------|

e|--------0------------------0-----------|
B|------------3---2--------------3---2---|
G|----2------------------1---------------|  Bridge
D|--0---0---0---0------2---2---2---2-----|
A|---------------------------------------|
E|---------------------------------------|

e|-----------------------0---0---0---0---|
B|----2---5---3---2------0---3---2---0---|
G|----2---2---2---2------1---1---1---1---|
D|----2---2---2---2------2---2---2---2---|
A|--0---0---0---0------------------------|
E|---------------------0---0---0---0-----|


| /  slide up
| \  slide down
| h  hammer-on
| p  pull-off
| ~  vibrato
| +  harmonic
| x  Mute note
===============================================================================
            
Submit corrections

comments powered by Disqus
↑ Back to top | Joshua James Tabs for Fm Radio. Lyrics for acoustic guitar and electric guitar. Tablatures and chords are parodies/interpretations of the original songs. You may use it for private study, scholarship, research or language learning purposes only