» » »

Joshua James, Crash This Train Tabs (ver.1)

Artists:  A B C D E F G H I J K L M N O P Q R S T U V W X Y Z # 

Crash This Train Tabs (ver.1)

Joshua James Tabs
 Rating:
4/5 (4 votes)
Crash This Train lessons Tabs too difficult? Try these video lessons and learn fast
                -------------------------------------------------------------------------------
-------------------------------------------------------------------------------


Tuning: EADGBe (Capo 2nd Fret)


VERSE
The basic pattern for the verse is: C, Am, F, C, G.

                 rough strumming pattern shown, 
    strum          listen to song for rhythm 
      v                        v
e|----------------0------------------------------------|
B|--------1-------0h1----1---111-1---1-----------------|
G|----0-----------2------0h2-000-0---0-000-------------|
D|----0h2------2--2------3---333-0h2-2-000-------------| x8
A|--3--------0----0------3---333-3---3-220h2-----------|
E|-------------------------------------333-------------|

BRIDGE
The bridge is: F, C, F, G with a hammer-on on the C.
         
e|--1111----------1111-3333----------------------------|
B|--1111-1---11---1111-0000----------------------------|
G|--2222-0---00---2222-0000----------------------------|
D|--3333-0h2-22---3333-0000----------------------------|
A|--3333-3---33---3333-2222----------------------------|
E|--1111----------1111-3333----------------------------|


CHORUS
The chorus opens with a descending baseline from C to Am.

  strum
    v
e|--------------------0--------------------------------|
B|------1------1------0h1---1---111-1---1--------------|
G|--0-----------------2-----0h2-000-0---0-000----------|
D|--2-------0-------2-2-----3---333-0h2-2-000----------| x2
A|--3-3---2------0----0-----3---333-3---3-220h2--------|
E|----------------------------------------333----------|

VERSE

    strum
      v                        
e|----------------0------------------------------------|
B|--------1-------0h1----1---111-1---1-----------------|
G|----0-----------2------0h2-000-0---0-000-------------|
D|----0h2------2--2------3---333-0h2-2-000-------------| x4
A|--3--------0----0------3---333-3---3-220h2-----------|
E|-------------------------------------333-------------|

BRIDGE

e|--1111----------1111-3333----------------------------|
B|--1111-1---11---1111-0000----------------------------|
G|--2222-0---00---2222-0000----------------------------|
D|--3333-0h2-22---3333-0000----------------------------|
A|--3333-3---33---3333-2222----------------------------|
E|--1111----------1111-3333----------------------------|

CHORUS

  strum
    v
e|--------------------0--------------------------------|
B|------1------1------0h1---1---111-1---1--------------|
G|--0-----------------2-----0h2-000-0---0-000----------|
D|--2-------0-------2-2-----3---333-0h2-2-000----------| x2
A|--3-3---2------0----0-----3---333-3---3-220h2--------|
E|----------------------------------------333----------|

VERSE

    strum
      v                        
e|----------------0------------------------------------|
B|--------1-------0h1----1---111-1---1-----------------|
G|----0-----------2------0h2-000-0---0-000-------------|
D|----0h2------2--2------3---333-0h2-2-000-------------| x4
A|--3--------0----0------3---333-3---3-220h2-----------|
E|-------------------------------------333-------------|

BRIDGE

e|--1111----------1111-3333----------------------------|
B|--1111-1---11---1111-0000----------------------------|
G|--2222-0---00---2222-0000----------------------------|
D|--3333-0h2-22---3333-0000----------------------------|
A|--3333-3---33---3333-2222----------------------------|
E|--1111----------1111-3333----------------------------|

CHORUS

  strum
    v
e|--------------------0---------------------------0----|
B|------1------1------0h1---1---111-1---1---------1----|
G|--0-----------------2-----0h2-000-0---0-000-----0----|
D|--2-------0-------2-2-----3---333-0h2-2-000-----2----| x4
A|--3-3---2------0----0-----3---333-3---3-220h2---3----|
E|----------------------------------------333----------|
            
Submit corrections

comments powered by Disqus
↑ Back to top | Joshua James Tabs for Crash This Train. Lyrics for acoustic guitar and electric guitar. Tablatures and chords are parodies/interpretations of the original songs. You may use it for private study, scholarship, research or language learning purposes only