» » »

Joseph Arthur, Porcupine Tabs (ver.1)

Artists:  A B C D E F G H I J K L M N O P Q R S T U V W X Y Z # 

Porcupine Tabs (ver.1)

Joseph Arthur Tabs
Rating:
0/5 (0 votes)
Porcupine lessons Tabs too difficult? Try these video lessons and learn fast
                Tuning: EADGBe

This tab has been made from a live version. As usual, Joseph adds hammer on all along 
song. I added a few ones, you can either play them or not or add some more anywhere you 
Follow your inspiration.

Part I

e|-----1-------1-------1-------------|
B|-----3-------3-------3---------1---|
G|---2--2----2--2----2--2--------0---|
D|-0-----0-3-----3-2-----2---0h2--2--|
A|-------------------------3-------3-|
E|-----------------------------------|

        A porcupine
        Crawling out from inside of your mind
        Like you growing a crown of...
     ...thorns oh oh oh oh
        But you're no messiah
        Your think more like a spider
        Cause guilty hearts beat upside...
     ...down oh oh oh oh

        Silver hubcaps replaced your eyes
        As you went spinning on a daydream...
     ...down oh oh oh oh
        Forgiving the road every inch for miles
        If your tyres survive
        You know your heart will explode
        Oh oh oh oh


Part II

e|------------------------0-----------------------------------------|
B|-----0-------0-------0h1----1-------1---------1-------0---------0-|
G|-----0-------0-------2------2-------0---------0-------0---------0-|
D|-----0-------0-----2-----2--2-----2-------0h2---------0---------0-|
A|---2-------2-----0--------0---0-3-----3-3-------3---2-------2h0---|
E|-3-----3-3-----3----------------------------------3-----3-3-------|

        And if this song was a sponge soaked in your blood well then I guess the story 
be told
        A fateful day you became a spider as I fed you blood from my nose

        Now you're just like me oh ooh oh oh ooh oh ooh yeah
        Now you're just like me oh ooh oh oh ooh oh ooh yeah

        x2
            
Submit corrections

comments powered by Disqus
↑ Back to top | Joseph Arthur Tabs for Porcupine. Lyrics for acoustic guitar and electric guitar. Tablatures and chords are parodies/interpretations of the original songs. You may use it for private study, scholarship, research or language learning purposes only