>
 >
Stay At Home Dad

Stay At Home Dad Guitar Tabs

Jon Lajoie - Stay At Home Dad chords, tabs, tablatures, lyrics

Guitar lessons | Add/correct | Request | Top 50 tabs Artists:  A B C D E F G H I J K L M N O P Q R S T U V W X Y Z 0-9

Stay At Home Dad Guitar Tabs – Jon Lajoie

CD, Sheet music, Poster

Do you like Stay At Home Dad? Share with your friends now
Tabs

                                Jon Lajoie
                             Stay At Home Dad
                           You Want Some Of This?

    This song isn't really that funny but it sounds cool, 
 The other tab for this song sucks major ass
         He does a Rage Against The Machine style thing at the end 
         with the
   "That's right, I take care of my children" Jon Lajoie-Stay At Home Dad
   "Fuck You, I won't do what you tell me" RATM-Killing In The Name

  INTRO       not the strum pattern or how many notes to play
  |-----------12\-------------------------12\-----------------------------|
  |-----------12\-X2----------------------12\-----------------------------|
  |-----------12\-------------------------12\-------(like that )----------|
  |--2-2--2-2-----2-2-2-2-2-2-2-2-2-2-2-2-----2-2-2-2-2-2-2-2-2-2---------|
  |--2-2--2-2-----2-2-2-2-2-2-2-2-2-2-2-2-----2-2-2-2-2-2-2-2-2-2---------|
  |--0-0--0-0-----0-0-0-0-0-0-0-0-0-0-0-0-----0-0-0-0-0-0-0-0-0-0---------|
     *    *       *   * * * * * *   * * *     *   * * * * 

  CHORUS
  |------------------------------------|
  |------------------------------------|
  |------------------------X4----------|
  |--2-2-2-2-2-7-7-7-5-5-5----5/7~~~~~-|
  |--0-0-0-0-0-7-7-7-5-5-5----3/5~~~~~-|
  |--0-0-0-0-0-5-5-5-3-3-3----3/5~~~~~-|

  VERSE
  |-----------12\---------|
  |-----------12\---------|
  |-----------12\---------|
  |--2-2--2-2-------------|
  |--2-2--2-2-------------|
  |--0-0--0-0-------------|
     *    *

  CHORUS
  |------------------------------------|
  |------------------------------------|
  |------------------------X4----------|
  |--2-2-2-2-2-7-7-7-5-5-5----5/7~~~~~-|
  |--0-0-0-0-0-7-7-7-5-5-5----3/5~~~~~-|
  |--0-0-0-0-0-5-5-5-3-3-3----3/5~~~~~-|

  VERSE
  |-----------12\---------|
  |-----------12\---------|
  |-----------12\---------|
  |--2-2--2-2-------------|
  |--2-2--2-2-------------|
  |--0-0--0-0-------------|
     *    *

  CHORUS
  |------------------------------------|
  |------------------------------------|
  |------------------------X4----------|
  |--2-2-2-2-2-7-7-7-5-5-5----5/7~~~~~-|
  |--0-0-0-0-0-7-7-7-5-5-5----3/5~~~~~-|
  |--0-0-0-0-0-5-5-5-3-3-3----3/5~~~~~-|

  KILLING IN THE NAME RIFF
 |------------------------------------------------------------------------|
 |-12121212121212-1313131313131313131313--1515151515151515-171717171717---|
 |------------------------------------------------------------------------|
 |-99999999999999-1010101010101010101010--1212121212121212-141414141414---|
 |------------------------------------------------------------------------|
 |------------------------------------------------------------------------|

  THAT'S RIGHT, I TAKE CARE OF MY CHILDREN!
  |----------------------------------------------------------|
  |----------------------------------------------------------|
  |----------------------------------------------------------|
  |-2-2-2--2--2--2-2-2--2--2--2-2-2--2--2--2-2-2--2--2-------|
  |-2-2-2--2--2--2-2-2--2--2--2-2-2--2--2--2-2-2--2--2-------|
  |-0-0-0--0--0--0-0-0--0--0--0-0-0--0--0--0-0-0--0--0---12/-|


  That's it!!!! Thank you!!!!!!

  





Comments


Popular Jon Lajoie tabs & chords
2 Girls 1 Cup 1 Chords
2 Girls 1 Cup Song Chords
Dropping E Chords
In Different Ways 1 Chords
Song For Students Chords
I Kill People Tabs
Cold Blooded Christmas Ukulele
Fear Boner Ukulele
Michael Richards Ukulele
Wtf Collective 2 Ukulele


Song lyrics



↑ Back to top | Tablatures and chords are parodies/interpretations of the original songs. You may use it for private study, scholarship, research or language learning purposes only
© 2014 AZChords.com Contact us | Privacy policy | DMCA | Add/correct tabs | Request tabs | Top 50 tabs