>
 >
Marcie

Marcie Guitar Tabs

Joni Mitchell - Marcie chords, tabs, tablatures, lyrics

Guitar lessons | Add/correct | Request | Top 50 tabs Artists:  A B C D E F G H I J K L M N O P Q R S T U V W X Y Z 0-9

Marcie Guitar Tabs – Joni Mitchell

CD, Sheet music, Poster

Do you like Marcie? Share with your friends now
ChordsTabsUkulele
---------------------------------------------------------------------------
                             Marcie – Joni Mitchell
---------------------------------------------------------------------------

Tuning: tune to G

---------------------------------------------------------------------------

Play twice for intro
e|----------------2-----------------------------------------x--------------|
B|----3--3-3--2--3-2-0-1--1—-1h3-1--0-1/3-----0-1/3---------x--------------|
G|---0------0--2----2---0--0--------------0-0-------0-0-----x--------------|
D|--3-----------2--------2--2--------------4---------4------x--------------|
A|-3--3-------2--------0--0---------0-0-0-----0-0-0---------x--------------|
E|----------------------------------------------------------x--------------|

---------------------------------------------------------------------------
Play for verses 1-4
e|----------------2--------------------------------------------------------|
B|----3--3-3--2--3-2-0-1--1—-1h3-1--0-1/3-----0-1/3------------------------|
G|---0------0--2----2---0--0--------------0-0-------0-0--------------------|
D|--3-----------2--------2--2--------------4---------4---------------------|
A|-3--3-------2--------0--0---------0-0-0-----0-0-0------------------------|
E|-------------------------------------------------------------------------|

e|-----------------7----------------4-------------------2------------------|
B|----8---0-7---7-8-7------5----4-5---4------3-3-3--2--3-2-0-1--1—-1h3-1---|
G|---0--0-----7------7---0---0---------4----0-----0--2----2---0--0---------|
D|--8----8-----7--------5-5-5-5---------0--3----------2--------2—-2--------|
A|-8--------7----------5--------4-4-4-----3--3------2--------0--0----------|
E|-------------------------------------------------------------------------|

e|-------------------------------------------------------------------------|
B|-0-1/3-----0-1/3---------------------------------------------------------|
G|-------0-0-------0-0-----------------------------------------------------|
D|--------4---------4------------------------------------------------------|
A|-0-0-0-----0-0-0---------------------------------------------------------|
E|-------------------------------------------------------------------------|

---------------------------------------------------------------------------

Bridge to be played after verses 2 and 3
e|-----0--------0---------5------5---5---------7--------7---------5--------|
B|---7--7-7---7--7-0----5--5-5-5--5-5-5------7--7-7---7--7-7----5--5-5-----|
G|--------------------5--5--5----------5------7--7-----7--7------5—5-------|
D|--7-7--7---7-7--7---------------------0---7--------7---------5-----------|
A|-7--------7----------5-------5----5---------------7---------5------------|
E|--------------------5--------------------7-------------------------------|
Summer goes, falls to the side walk like string…etc.

e|----5-----5--------0---------2-------------------------------------------|
B|--5---5--5-5-----0--0-0--2--3-2-0-1--1—-1h3-1--0-1/3-----0-1/3-----------|
G|------------5-----0--0----2----2---0--0--------------0-0-------0-0-------|
D|-------------0--0----------2--------2--2--------------4---------4--------|
A|--5------5---------------2--------0--0---------0-0-0-----0-0-0-----------|
E|---------------0---------------------------------------------------------|




At the end, just play the intro again and slide a few extra times at the end of the intro for closure.

There you go! This is my first time tabbing so I hope it works out for you 

| /  slide up
| \  slide down
| h  hammer-on
| p  pull-off
| ~  vibrato
| +  harmonic
| x  Mute note
============================================================================





Comments


Popular Joni Mitchell tabs & chords
Blue Boy Chords
I Dont Know Where Chords
Michael From Mountains Chords
Shades Of Scarlet Conquering Chords
Twisted Chords
California Intro Tabs
A Case Of You Ukulele
Coyote Ukulele
Electricity Ukulele
The Same Situation Ukulele


Song lyrics



↑ Back to top | Tablatures and chords are parodies/interpretations of the original songs. You may use it for private study, scholarship, research or language learning purposes only
© 2014 AZChords.com Contact us | Privacy policy | DMCA | Add/correct tabs | Request tabs | Top 50 tabs